Song name
# A B C D E F G H I J K L M N O P Q R S T U V W X Y Z

Ambassadors - Gugmang Giatay tab

Song Name   : GUGMANG GIATAY
Song Artist : AMBASSADORS
Tabbed By   : JSaguino 

This is my First time to make a tab..
Hope U like this!! GUGMANG GIATAY.....

The chords are C Am F G

  C                       Am
 e|--------0-1-0------------------------------|
 B|--------------0---0--------1-0-----0-------|
 G|----------------0--------------2-----0-----|
 D|----2-------------------2--------2---------|
 A|--3-------------------0--------------------|
 E|-------------------------------------------|
  
  F                    G
 e|-----------1----------------3--------------|
 B|---------1---1---1--------3---3---3--------|
 G|-------2-------2--------4-------4----------|
 D|-----3----------------5--------------------|
 A|---3----------------5----------------------|
 E|-------------------------------------------|


Thats all..i hope u like it. :-)
Tap to rate this tab
 
# A B C D E F G H I J K L M N O P Q R S T U V W X Y Z