Song name
# A B C D E F G H I J K L M N O P Q R S T U V W X Y Z

Ambassadors - Litost tab

(/) Slide Up  (\) Slide Down  (h) Hammer On  (p) Pull Off

"Litost" by Ambassadors
Tuned in Open D with a capo on the 3rd fret
Tabbed by dbrookemeade

D |--x--xxx--x--xxx--0--000--0--000--0/0--0--0--0--000--0--|   
A |--x--xxx--x--xxx--0--000--0--000--0/0--0--0--0--000--0--|   
F#|--x--xxx--x--xxx--3--333--3--333--3/5--5--5--5--555--5--|  
D |--x--xxx--x--xxx--0--000--0--000--0/0--0--0--0--000--0--|  
A |--x--xxx--x--xxx--0--000--0--000--0/0--0--0--0--000--0--|   
D |--x--xxx--x--xxx--3--333--3--333--3/5--5--5--5--555--5--|   


D |--00-----------------------0--000--0--|
A |--00----0--00\0--0--0/0----0--000--0--|
F#|--00----0--00\0--0--0/0----0--000--0--|
D |--00h4--4--44\2--2--2/4p0--0--000--0--|
A |--00----0--00\0--0--0/0----0--000--0--|
D |--00h4--4--44\2--2--2/4p0--0--000--0--|


D |--00-----------------------0--000--0-------------|
A |--00----0--00\0--0--0/0----0--000--0----0-0-0-0--|
F#|--00----0--00\0--0--0/0----0--000--0----0-0-0-0--|
D |--00h4--4--44\2--2--2/4p0--0--000--0----0-0-0-0--|
A |--00----0--00\0--0--0/0----0--000--5h7--7-7-7-7--|
D |--00h4--4--44\2--2--2/4p0--0--000--0----0-0-0-0--|


D |--00-----------------------0--000--0--|
A |--00----0--00\0--0--0/0----0--000--0--|
F#|--00----0--00\0--0--0/0----0--000--0--|
D |--00h4--4--44\2--2--2/4p0--0--000--0--|
A |--00----0--00\0--0--0/0----0--000--0--|
D |--00h4--4--44\2--2--2/4p0--0--000--0--|


D |--00----------------0---0-0-0---0---0-0-0---0---|
A |--00----0--00\0--00/0---0-0-0---0---0-0-0---0---|
F#|--00----0--00\0--00/0---0-0-0---0---0-0-0---0---|
D |--00h4--4--44\2--22/12--121212--12--121212--12--|
A |--00----4--44\2--22/12--121212--12--121212--12--|
D |--00h4--4--44\2--22/12--121212--12--121212--12--|


D |--00-----------------------0--000--0--|
A |--00----0--00\0--0--0/0----0--000--0--|
F#|--00----0--00\0--0--0/0----0--000--0--|
D |--00h4--4--44\2--2--2/4p0--0--000--0--|  x3
A |--00----0--00\0--0--0/0----0--000--0--|
D |--00h4--4--44\2--2--2/4p0--0--000--0--|


D |--00-----------------------0--000--0-------------|
A |--00----0--00\0--0--0/0----0--000--0----0-0-0-0--|
F#|--00----0--00\0--0--0/0----0--000--0----0-0-0-0--|
D |--00h4--4--44\2--2--2/4p0--0--000--0----0-0-0-0--|
A |--00----0--00\0--0--0/0----0--000--5h7--7-7-7-7--|
D |--00h4--4--44\2--2--2/4p0--0--000--0----0-0-0-0--|


D |--00-----------------------0--000--0--|
A |--00----0--00\0--0--0/0----0--000--0--|
F#|--00----0--00\0--0--0/0----0--000--0--|
D |--00h4--4--44\2--2--2/4p0--0--000--0--|  x3
A |--00----0--00\0--0--0/0----0--000--0--|
D |--00h4--4--44\2--2--2/4p0--0--000--0--|


D |--00-----------------------0--0-------------------|
A |--00----0--00\0--0--0/0----0--0--5h7-7-5-7-5-7-0--|
F#|--00----0--00\0--0--0/0----0--0--5h7-7-5-7-5-7-0--|
D |--00h4--4--44\2--2--2/4p0--0--0--0---0-0-0-0-0-0--|  
A |--00----0--00\0--0--0/0----0--0--0---0-0-0-0-0-0--|
D |--00h4--4--44\2--2--2/4p0--0--0-------------------|


D |--00-----------------------0--000--0-------------|
A |--00----0--00\0--0--0/0----0--000--0----0-0-0-0--|
F#|--00----0--00\0--0--0/0----0--000--0----0-0-0-0--|
D |--00h4--4--44\2--2--2/4p0--0--000--0----0-0-0-0--|
A |--00----0--00\0--0--0/0----0--000--5h7--7-7-7-7--|
D |--00h4--4--44\2--2--2/4p0--0--000--0----0-0-0-0--|


D |--00-----------------------0--000--0--|
A |--00----0--00\0--0--0/0----0--000--0--|
F#|--00----0--00\0--0--0/0----0--000--0--|
D |--00h4--4--44\2--2--2/4p0--0--000--0--|  x3
A |--00----0--00\0--0--0/0----0--000--0--|
D |--00h4--4--44\2--2--2/4p0--0--000--0--|


D |--00-----------------------0--000--0-------------|
A |--00----0--00\0--0--0/0----0--000--0----0-0-0-0--|
F#|--00----0--00\0--0--0/0----0--000--0----0-0-0-0--|
D |--00h4--4--44\2--2--2/4p0--0--000--0----0-0-0-0--|
A |--00----0--00\0--0--0/0----0--000--5h7--7-7-7-7--|
D |--00h4--4--44\2--2--2/4p0--0--000--0----0-0-0-0--|


D |--00-----------------------0--000--0--|
A |--00----0--00\0--0--0/0----0--000--0--|
F#|--00----0--00\0--0--0/0----0--000--0--|
D |--00h4--4--44\2--2--2/4p0--0--000--0--|  x3
A |--00----0--00\0--0--0/0----0--000--0--|
D |--00h4--4--44\2--2--2/4p0--0--000--0--|


D |--00-------------------------0--0--000--0-------------|
A |--00----0--0--00--0--0--000--0--0--000--0----0-0-0-0--|
F#|--00----0--0--00--0--0--000--0--0--000--0----0-0-0-0--|
D |--00h4--4--4--44--2--2--222--0--0--000--0----0-0-0-0--|
A |--00----0--0--00--0--0--000--0--0--000--5h7--7-7-7-7--|
D |--00h4--4--4--44--2--2--222--0--0--000--0----0-0-0-0--|


D |--33--x-x-x-x-x-x-x-x-x--000--x-x-x-x-x-x-x-x--|
A |--33--x-x-x-x-x-x-x-x-x--000--x-x-x-x-x-x-x-x--|
F#|--33--x-x-x-x-x-x-x-x-x--000--x-x-x-x-x-x-x-x--|
D |--33--x-x-x-x-x-x-x-x-x--000--x-x-x-x-x-x-x-x--|
A |--33--x-x-x-x-x-x-x-x-x--000--x-x-x-x-x-x-x-x--|
D |--33--x-x-x-x-x-x-x-x-x--000--x-x-x-x-x-x-x-x--|


D |--00-------------------0--000--0-------------|
A |--00----0--00\0--0--00\0--000--0----0-0-0-0--|
F#|--00----0--00\0--0--00\0--000--0----0-0-0-0--|
D |--00h4--4--44\2--2--22\0--000--0----0-0-0-0--|
A |--00----0--00\0--0--00\0--000--5h7--7-7-7-7--|
D |--00h4--4--44\2--2--22\0--000--0----0-0-0-0--|


D |--33--x-x-x-x-x-x-x-x-x--000--x-x-x-x-x-x-x-x--|
A |--33--x-x-x-x-x-x-x-x-x--000--x-x-x-x-x-x-x-x--|
F#|--33--x-x-x-x-x-x-x-x-x--000--x-x-x-x-x-x-x-x--|
D |--33--x-x-x-x-x-x-x-x-x--000--x-x-x-x-x-x-x-x--|
A |--33--x-x-x-x-x-x-x-x-x--000--x-x-x-x-x-x-x-x--|
D |--33--x-x-x-x-x-x-x-x-x--000--x-x-x-x-x-x-x-x--|


D |--00---------------------------------00--|
A |--00----0--00\0--0--00\0--000--0--00-00--|
F#|--00----0--00\0--0--00\0--000--0--00-00--|
D |--00h4--4--44\2--2--22\1--111--1--11-00--|
A |--00----0--00\0--0--00\0--000--0--00-00--|
D |--00h4--4--44\2--2--22\1--111--1--11-00--|


D |----------------------0--000--0--|
A |--00--00\0--0--0/0----0--000--0--|
F#|--00--00\0--0--0/0----0--000--0--|
D |--44--44\2--2--2/4p0--0--000--0--| 
A |--00--00\0--0--0/0----0--000--0--|
D |--44--44\2--2--2/4p0--0--000--0--|


D |--00-----------------------0--000--0--|
A |--00----0--00\0--0--0/0----0--000--0--|
F#|--00----0--00\0--0--0/0----0--000--0--|
D |--00h4--4--44\2--2--2/4p0--0--000--0--|  x3
A |--00----0--00\0--0--0/0----0--000--0--|
D |--00h4--4--44\2--2--2/4p0--0--000--0--|


D |--00-------------------0--000--0-------------|
A |--00----0--00\0--0--00\0--000--0----0-0-0-0--|
F#|--00----0--00\0--0--00\0--000--0----0-0-0-0--|
D |--00h4--4--44\2--2--22\0--000--0----0-0-0-0--|
A |--00----0--00\0--0--00\0--000--5h7--7-7-7-7--|
D |--00h4--4--44\2--2--22\0--000--0----0-0-0-0--|


D |--00-----------------------0--000--0--|
A |--00----0--00\0--0--0/0----0--000--0--|
F#|--00----0--00\0--0--0/0----0--000--0--|
D |--00h4--4--44\2--2--2/4p0--0--000--0--|  x3
A |--00----0--00\0--0--0/0----0--000--0--|
D |--00h4--4--44\2--2--2/4p0--0--000--0--|


D |--00-------------------------0--0--000--0-------------|
A |--00----0--0--00--0--0--000--0--0--000--0----0-0-0-0--|
F#|--00----0--0--00--0--0--000--0--0--000--0----0-0-0-0--|
D |--00h4--4--4--44--2--2--222--0--0--000--0----0-0-0-0--|
A |--00----0--0--00--0--0--000--0--0--000--5h7--7-7-7-7--|
D |--00h4--4--4--44--2--2--222--0--0--000--0----0-0-0-0--|


D |--33--x-x-x-x-x-x-x-x-x--000--x-x-x-x-x-x-x-x--|
A |--33--x-x-x-x-x-x-x-x-x--000--x-x-x-x-x-x-x-x--|
F#|--33--x-x-x-x-x-x-x-x-x--000--x-x-x-x-x-x-x-x--|
D |--33--x-x-x-x-x-x-x-x-x--000--x-x-x-x-x-x-x-x--|
A |--33--x-x-x-x-x-x-x-x-x--000--x-x-x-x-x-x-x-x--|
D |--33--x-x-x-x-x-x-x-x-x--000--x-x-x-x-x-x-x-x--|


D |--00-------------------0--000--0-------------|
A |--00----0--00\0--0--00\0--000--0----0-0-0-0--|
F#|--00----0--00\0--0--00\0--000--0----0-0-0-0--|
D |--00h4--4--44\2--2--22\0--000--0----0-0-0-0--|
A |--00----0--00\0--0--00\0--000--5h7--7-7-7-7--|
D |--00h4--4--44\2--2--22\0--000--0----0-0-0-0--|


D |--33--x-x-x-x-x-x-x-x-x--000--x-x-x-x-x-x-x-x--|
A |--33--x-x-x-x-x-x-x-x-x--000--x-x-x-x-x-x-x-x--|
F#|--33--x-x-x-x-x-x-x-x-x--000--x-x-x-x-x-x-x-x--|
D |--33--x-x-x-x-x-x-x-x-x--000--x-x-x-x-x-x-x-x--|
A |--33--x-x-x-x-x-x-x-x-x--000--x-x-x-x-x-x-x-x--|
D |--33--x-x-x-x-x-x-x-x-x--000--x-x-x-x-x-x-x-x--|


D |--00------------------------------------0-0-0-0-000000000|
A |--00----0--00\0--0--00\0-0-0-0-0-0-0--0-0-0-0-0-000000000|
F#|--00----0--00\0--0--00\0-0-0-0-0-0-0--0-0-0-0-0-000000000|
D |--00h4--4--44\2--2--22\1-1-1-1-1-1-1--1p0-0-0-0-000000000|
A |--00----0--00\0--0--00\0-0-0-0-0-0-0--0-0-0-0-0-000000000|
D |--00h4--4--44\2--2--22\1-1-1-1-1-1-1--1p0-0-0-0-000000000|


D |--33--x-x-x-x-x-x-x-x-x--000--x-x-x-x-x-x-x-x--|
A |--33--x-x-x-x-x-x-x-x-x--000--x-x-x-x-x-x-x-x--|
F#|--33--x-x-x-x-x-x-x-x-x--000--x-x-x-x-x-x-x-x--|
D |--33--x-x-x-x-x-x-x-x-x--000--x-x-x-x-x-x-x-x--|
A |--33--x-x-x-x-x-x-x-x-x--000--x-x-x-x-x-x-x-x--|
D |--33--x-x-x-x-x-x-x-x-x--000--x-x-x-x-x-x-x-x--|


D |--00-------------------0--000--0-------------|
A |--00----0--00\0--0--00\0--000--0----0-0-0-0--|
F#|--00----0--00\0--0--00\0--000--0----0-0-0-0--|
D |--00h4--4--44\2--2--22\0--000--0----0-0-0-0--|
A |--00----0--00\0--0--00\0--000--5h7--7-7-7-7--|
D |--00h4--4--44\2--2--22\0--000--0----0-0-0-0--|


D |--33--x-x-x-x-x-x-x-x-x--000--x-x-x-x-x-x-x-x--|
A |--33--x-x-x-x-x-x-x-x-x--000--x-x-x-x-x-x-x-x--|
F#|--33--x-x-x-x-x-x-x-x-x--000--x-x-x-x-x-x-x-x--|
D |--33--x-x-x-x-x-x-x-x-x--000--x-x-x-x-x-x-x-x--|
A |--33--x-x-x-x-x-x-x-x-x--000--x-x-x-x-x-x-x-x--|
D |--33--x-x-x-x-x-x-x-x-x--000--x-x-x-x-x-x-x-x--|


D |--00------------------------------------0-0--|
A |--00----0--00\0--0--00\0-0-0-0-0-0-0--0-0-0--|
F#|--00----0--00\0--0--00\0-0-0-0-0-0-0--0-0-0--|
D |--00h4--4--44\2--2--22\1-1-1-1-1-1-1--1p0-0--|
A |--00----0--00\0--0--00\0-0-0-0-0-0-0--0-0-0--|
D |--00h4--4--44\2--2--22\1-1-1-1-1-1-1--1p0-0--|


D |--00-----------------------0--000--0--|
A |--00----0--00\0--0--0/0----0--000--0--|
F#|--00----0--00\0--0--0/0----0--000--0--|
D |--00h4--4--44\2--2--2/4p0--0--000--0--|  x3
A |--00----0--00\0--0--0/0----0--000--0--|
D |--00h4--4--44\2--2--2/4p0--0--000--0--|


D |--00-----------------------|
A |--00----0--00\0--0--00--0--|
F#|--00----0--00\0--0--00--0--|
D |--00h4--4--44\2--2--22--0--|
A |--00----0--00\0--0--00--0--|
D |--00h4--4--44\2--2--22--0--|
Tap to rate this tab
# A B C D E F G H I J K L M N O P Q R S T U V W X Y Z