Song name
# A B C D E F G H I J K L M N O P Q R S T U V W X Y Z

Ambassadors - Reason Out tab

Song:REASON OUT
Artist: The Ambassadors
Album: SIMPLE CHANGES, under Lighter Records

Tabber: Michael -chico- Rombawa
for friendstertseness : mykro85@yahoo.com
for myspacers & neatvibers: chicoholics@yahoo.com


        C              G                 Am         G            
E--------------------222222------------000000-----222222---|
B-----111111---------222222------------111111-----222222---|
G-----222222---------000000------------222222-----000000---|
D-----000000---------000000------------222222-----000000---|
A-----333333---------222222------------000000-----222222---|
E--------------------333333-----------------------333333---|

How I wish to write a song that could change your mind
         F                                    G
E--------------------------------------------2222----------|
B--------------------------------------------2222----------|
G---22222222222222---------------------------0000----------|
D---33333333333333---------------------------0000----------|
A---33330000003333---------------------------2222----------|
E---11111111111111---------------------------3333----------|
And so is your belief that music's all about attire 

        C              G                 Am         G            
E--------------------222222------------000000-----222222---|
B-----111111---------222222------------111111-----222222---|
G-----222222---------000000------------222222-----000000---|
D-----000000---------000000------------222222-----000000---|
A-----333333---------222222------------000000-----222222---|
E--------------------333333-----------------------333333---|

How I wish to write a song that could change the world 
  F                                    G
E--------------------------------------------2222----------|
B--------------------------------------------2222----------|
G---22222222222222---------------------------0000----------|
D---33333333333333---------------------------0000----------|
A---33330000003333---------------------------2222----------|
E---11111111111111---------------------------3333----------|
Na-na-na-na...

G1
E--------------------|
B--------------------|
G--7-777777777777----|
D--7-777777777777----|
A--5-555555555555----|
E--------------------|
.........p.m..........
E-------------------------------------------|
B-------------------------------------------|
G---55555555--------------------------------|
D---55555555--55555555--77777777--55555555--|
A---33333333--55555555--77777777--55555555--|
E-------------33333333--55555555--33333333--|
.....................pm......................
G2
E------------------------------------------------------------------------|
B-12---------12--------------------------------12-12-12-12-10121012--14~-|
G----9-11-9-----9-119119----14141414-12141214----------------------------|
D------------------------------------------------------------------------|
A------------------------------------------------------------------------|
E------------------------------------------------------------------------|


E-------------------------------------------|
B-------------------------------------------|
G---55555555--------------------------------|
D---55555555--55555555--77777777--55555555--| let ring 
A---33333333--55555555--77777777--55555555--|
E-------------33333333--55555555--33333333--|
.....................pm......................
You tell me you were right then you said that I was wrong, 
Everything turns into black, all the things that used to be so bright.
I tried to explain but you never listen hear me please so I beg you I want you too.

Interlude:
G1
E-------------------------------------------|
B-------------------------------------------|
G---55555555--------------------------------|
D---55555555--55555555--77777777--55555555--|
A---33333333--55555555--77777777--55555555--|
E-------------33333333--55555555--33333333--|
.....................pm......................
G2
E-------------------------------------------------------|
B--7----------------------------------------------------|
G----5-55555555--7-77777777-5-55555555-----5-7-3-5-3----|
D----------------------------------------7--------------|
A-------------------------------------------------------|
E-------------------------------------------------------|

E-------------------------------------------|
B-------------------------------------------|
G---55555555--------------------------------|
D---55555555--55555555--77777777--55555555--| let ring
A---33333333--55555555--77777777--55555555--|
E-------------33333333--55555555--33333333--|
.....................pm......................
You fart in front of me showed me your butt as you walk away 
You let me eat a piece of paper then you let me drink urine.
I never complain I know you’ll never listen 
Hear me please so I say
E----------------------------|
B----------------------------|
G----------------------------|
D----55555555---33333333-----| let ring
A----55555555---33333333-----|
E----33333333---11111111-----|
I want you to be back 
I want you to understand
I want you to be back
E-----------------------------------------------------------------------------|
B-----------------------------------------------------------------------------|
G-----------55555555--777777--999999--777777--555555--------------------------|
D-55555555--55555555--777777--999999--777777--555555--555555--777777--555555--|
A-55555555--33333333--555555--799999--555555--333333--555555--777777--555555--|
E-33333333--------------------------------------------333333--555555--333333--|
.................................p.m...........................................
I want you to come back and tell me what your up to now 
All the times we shared but you never really cared 
Now its time to start coz it's breaking up my heart 
And it makes me wanna stop breathin'
E---------------------------------------------|
B---------------------------------------------|
G----------------------9--7777--55555555------|
D---9--7777--55555555--9--7777--55555555------|
A---9--7777--55555555--7--5555--33333333------|
E---7--5555--33333333-------------------------|
This time its never gonna be the last time,
E---------------------------------------------------|
B---------------------------------------------------|
G----------------------9--7777--55555555------------|
D---9--7777--55555555--9--7777--55555555--555555----|
A---9--7777--55555555--7--5555--33333333--555555----|
E---7--5555--33333333---------------------333333----|
Never gonna change the first time or even history 



E----------------------------|
B----------------------------|
G----------------------------|
D----55555555---33333333-----| let ring
A----55555555---33333333-----|
E----33333333---11111111-----|
I want you to be back 
I want you to understand
I want you to be back
E-----------------------------------------------------------------------------|
B-----------------------------------------------------------------------------|
G-----------55555555--777777--999999--777777--555555--------------------------|
D-55555555--55555555--777777--999999--777777--555555--555555--777777--555555--|
A-55555555--33333333--555555--799999--555555--333333--555555--777777--555555--|
E-33333333--------------------------------------------333333--555555--333333--|
.................................p.m...........................................
I want you to come back and tell me what your up to now 
All the times we shared but you never really cared 
Now its time to start coz it's breaking up my heart 
And it makes me wanna stop breathin'

E----------------------------|
B----------------------------|
G---7-77---------------------|
D---7-77--7-77--5/7----------| 
A---5-55--7-77--5/7----------|
E---------5-55--3/5----------|
              -fenesh-
======================================================
REASON OUT
From the Album, SIMPLE CHANGES, under Lighter Records
Words and Music by I. Amores and B. Nunez
Arranged by The Ambassadors

How I wish to write a song that could change your mind
And so is your belief that music's all about attire 
How I wish to write a song that could change the world 
Na-na-na-na...

You tell me you were right then you said that I was wrong, 
Everything turns into black, all the things that used to be so bright.
I tried to explain but you never listen hear me please so I beg you I want you too.

You fart in front of me showed me your butt as you walk away 
You let me eat a piece of paper then you let me drink urine.
I never complain I know you’ll never listen 
Hear me please so I say

I want you to be back 
I want you to understand
I want you to be back
I want you to come back and tell me what your up to now 
All the times we shared but you never really cared 
Now its time to start coz it's breaking up my heart 
And it makes me wanna stop breathin'

This time its never gonna be the last time, 
Never gonna change the first time or even history 

I want you to be back 
I want you to understand
I want you to be back
I want you to come back and tell me what your up to now 
All the times we shared but you never really cared 
Now its time to start coz it's breaking up my heart 
And it makes me wanna stop breathin' 
 
===============================================================
The song was great, awesome...... 
so I made this tab for me and for us
I have their album and I like it.....
The lyrics was also nice if you can read the lyrics is almost an emo...
The song is emo, who want to be back, to understand and to come back his gf
but it really not work it but to stop..... hmmm..
I really know what is a feeling of this situation cuz I experience already...
and it suckz.... she leave me....wah T-T 5@D 
                    
Tap to rate this tab
# A B C D E F G H I J K L M N O P Q R S T U V W X Y Z