Song name
# A B C D E F G H I J K L M N O P Q R S T U V W X Y Z

Ambassadors - Bakakon Ka tab

Song    : Bakakon Ka
Artist  : Agressive Audio


Intro:
 Note:(no long Intro, intro only that is
       played also in Verse)
     :[---] pag may nakita kayong ganito sa ibabaw ng nota
      kayo na bahala saan yan talaga na tono, dahil tamad ako
     : Make Your Strumming. Kulang talaga ang Tab ko ng Strums


    E          B            C#m
e|-----7----------------------------------|
B|--------7----4------------5--4----------|
G|--------------------6------------6---4--|
D|----------------------------------------|
A|----------------------------------------|
E|----------------------------------------|

    A
e|---------------------------------|
B|---------------------------------|
G|--6/-8--6---4--6--4--------------|
D|----------------------6--4-------|
A|----------------------------7----|
E|---------------------------------|

    E         B  -      C#m
e|----7---------------------------------|
B|-------7----4----------5--4-----------|
G|----------------6-------------6--4----|
D|--------------------------------------|
A|--------------------------------------|
E|--------------------------------------|

    A            ----
e|---------------5---------------|
B|------------------5------------|
G|--6/-8--6--4-------------------|
D|---------------------6--4------|
A|---------------------------7---|
E|-------------------------------|

Verse:(kayo na bahala ilang ulit na played ang Intro)
       Sa VERSE, basta ang chords ganon parin)

   F#               A              E
e|--2----2----------5--------------7------------|
B|--2-------2-------5----------------7--4-------|
G|--3---------------6---------------------6-----|
D|--4---------------7---------------------------|
A|----------------------------------------------|
E|----------------------------------------------|
   Pag human ogkaon nang-hingiki sa iyang ngipon

Pre-Chorus:

                                (make your own strum)
    C#            B          A             B
e|--------------------------------------------------------|
B|--------------------------------------------------------|
G|--------------------------------------------------------|(2x)
D|--11-11---------9-9--------7-7--7--------9--------------|
A|--11-11---------9-9--------7-7--7--------9--------------|
E|--9--9----------7-7--------5-5--5--------7--------------|
  Pag pani-gnil sa tindera.........

Chorus:

        (Make your own strum)

e|--------------------------------------------------|
B|--------------------------------------------------|
G|---9----------------------------------------------|(2x)
D|---9-----------9------------7------------9--------|
A|---7-----------9------------7------------9--------|
E|---------------7------------5------------7--------|

  End of 1st Chorus D------------|
  Then: ring wide --A------------| this is only in the
                    E---7~~~~----| the first chorus...

REPEAT:
       Intro      : \Kayo na bhala kung na-iba na Tono
       Verse      : /
       Pre-Chorus :
       Chorus     : 4x


SOLO: (Do verse chords.. Kayo na bahala sa strumming)

              in-(9)
e|------------------------------------------------------|
B|-------------------------------------17-----\16-------|
G|--------------------------11b====--------14------13---|
D|---------7--9b==r--11--9------------------------------|
A|---7--9-----------------------------------------------|
E|------------------------------------------------------|

          bend release in-(10)     in-(8)
e|---------------------------------------------------|
B|-\14-----\12------8--10b==rp8--6-8b==r-------------|
G|------11------9-------------------------7--9~~-----|
D|---------------------------------------------------|
A|---------------------------------------------------|
E|---------------------------------------------------|

                     in-(14)
e|---------------------------------------------------------|
B|-----------9---14b======r14~~~~---14/-17~-\16--\14--\12--|
G|--11--9-11-----------------------------------------------|
D|---------------------------------------------------------|
A|---------------------------------------------------------|
E|---------------------------------------------------------|

                                            [slithgly release]
                                       PM PM PM  PM
e|----------------------------------------------------------|
B|-10----10-------------------------------------------------|
G|----12----12---12-14b==r----------------------------------|
D|-------------------------12--14b~~~-----------------------|
A|-------------------------------------14-14-14--14~--14~~--|
E|----------------------------------------------------------|


   PM PM  PM                     PM  PM  PM     <~>
e|-------------------------------------------------------------|
B|-------------------------------------------------------------|
G|--------------------------------------------16b~-------------|
D|-------------------12--14b~----12--14--12---16b~-\-14~-14\~--|
A|-12-14--12--14b~---------------------------------------------|
E|-------------------------------------------------------------|

   PM  PM  PM  PM  PM  PM    <~>
e|-------------------------------------------------------------|
B|-------------------------------------------------------------|
G|--------------------------------------12h14p12-14/-16~--16~--|
D|-12--14--12--14--12--14~--14~---12-14------------------------|
A|-------------------------------------------------------------|
E|-------------------------------------------------------------|

                          Octave(pluck only 19 fret on B-string
                                 then maintain it, when you
                                 create slides. As octaves)
e|---------------------------------------------------------|
B|-----------------------------19---\------\-----\-----/---|
G|---------------------------------------------------------|
D|--/-16~--\14~--\13~--\11~--/-16~--\14~---\13~--\11~--/---|
A|---------------------------------------------------------|
E|---------------------------------------------------------|


e|---------------------------------------------------------|
B|-/19---\-----\-----\-------------------------------------|
G|---------------------------------------------------------|
D|-/16~--\14~--\13~--\11~---/-14b~--14b~--h16--14--13~~----|
A|---------------------------------------------------------|
E|---------------------------------------------------------|

                       <~~>                  <~~>        PM
e|----------------------------------------------------------|
B|----------------------------------------------------------|
G|----------11--8h9p-8b~~~---------11--8h9p-8b~~~-----------|
D|--11-11------------------9--9--------------------7--7--7--|
A|--11-11------------------9--9--------------------7--7--7--|
E|--9--9-------------------7--7--------------------5--5--5--|

            PM PM
e|------------------------------------------------|
B|------------------------------------------------|
G|------------------------------------------------|
D|--11\-9---9--9---9-p7-p6---4h-6h-7---4---2~~----|
A|------------------------------------------------|
E|------------------------------------------------|

                       <~~>                  <~~>      PM PM
e|------------------------------------------------------------|
B|------------------------------------------------------------|
G|----------11--8h9p-8b~~~--------11--8h9p-8b~~~--------------|
D|--11-11------------------9--9-------------------7--7--7--7--|
A|--11-11------------------9--9-------------------7--7--7--7--|
E|--9--9-------------------7--7-------------------5--5--5--5--|


  Lots Palm Muting,
  (Make your own strum)

   PM PM------             PM PM-------------------|
e|-------------------------------------------------|
B|-------------------------------------------------|
G|-------------------------------------------------|
D|-7--7-------11p-9--9p-7--7--7-----------9p-7-----|
A|-7--7--------------------7--7--------------------|
E|-5--5--------------------5--5--------------------|


e|----------------------------------------------|
B|----------------------------------------------|
G|-------11-11--9-9--8-8-------9-9--8-8--6-6----|
D|-11-11------------------9--9------------------|
A|-11-11------------------9--9------------------|
E|-9--9-------------------7--7------------------|
         Naa bay tikasan...   na mu tug....  -an

e|--------------------------------------------|
B|--------------------------------------------|
G|------8-8--6-6--4-4--2-2--1-1--2-2--4-4-----|
D|-7--7---------------------------------------|
A|-7--7---------------------------------------|
E|-5--5---------------------------------------|
    ................an

e|--------------------------------------------|
B|--------------------------------------------|
G|-------11-11--9-9--8-8------9-9--8-8--6-6---|
D|-11-11-----------------9--9-----------------|
A|-11-11-----------------9--9-----------------|
E|-9--9------------------7--7-----------------|
        Naa bay kawatan       na mu tug  -an

  (Make your own strum................
                                             PM......
e|-----------------------------------------------------|
B|-----------------------------------------------------|
G|-----------------------------------------------------|
D|-7------------------------9----------------9---------|
A|-7------------------------9----------------9---------|
E|-5------------------------7----------------7---------|
   ..........an .....................an...........

REPEAT:
       Chorus:

  (Kapoya Oy..... Kayo na Bahala)

    E          B        A       B
e|------------------------------------|
B|------------------------------------|
G|------------------------------------|    \ Repeat 2x
D|-------------9----------------------|     \Except
A|-------------9----------------------|      \ this
E|-------------7----------------------|      /Part\
       Bakakon Ka   Liar Evil Ka... ha...  /      \
                                          /       /
   E            B            A           B       /:
e|----------------------------------------------- :
B|----------------------------------------------- :
G|----------------------------------------------- :
D|-11-----------9-------------7-----------9------ :
A|-11-----------9-------------7-----------9------ :
E|-9------------7-------------5-----------7------ :

   B     C#m  E  A   B        A     B
e|------------------------------------------------|
B|------------------------------------------------|
G|------------9-----------------------------------|
D|-9------11--9--7---9--------7------9------------|
A|-9------11--7--7---9--------7------9------------|
E|-7------9------5---7--------5------7------------|
  Bakakon ka         Liar    Evil Ka

  '''''then'''''''

Repeat:
       Intro: End at E

Tablature Legend:

  h      -- hammer on
  p      -- pull off
  b      -- bend
  r      -- bend release (release in-(fret or note sound number)
  ===    -- bend hold or tied note
      -- quick (?-let ring or bend)
  /,\    -- slide(toward, forward)
  ~      -- let ring
  AH     -- Artificial Harmonic
  TP     -- Tap Harmonic
  PH     -- Pitch Harmonic
  NH     -- Natural Harmonic
  PM     -- Palm Muted
  T      -- Tap
  Tr     -- Trill

         Tab By : Nazo Dela Reka
         Email  : nazo_dela_reka@yahoo.com
                  rpg_rockers@yahoo.com

           Ah... Ang kantang ito ay para pala sa drummer naming
           (Banda ka....... Rocker, Fucker ka.......) hehehe...
Tap to rate this tab
 
# A B C D E F G H I J K L M N O P Q R S T U V W X Y Z