Guitaretab - guitar tabs
Song name
# A B C D E F G H I J K L M N O P Q R S T U V W X Y Z

Amber Pacific - Letters Of Regret tab

-----------------------------------------------------------------
Letters Of Regret - Amber Pacific
-----------------------------------------------------------------
Tabbed by: Bair
Email: bair_morritt@hotmail.com

Tuning: Standard

Length: 1:41

**A song that hasnt been tabbed yet, not sure why?**

Intro:
e|------------------------------------------|
B|------------------------------------------|
G|--66666666666666666-XXXX-666--------------|
D|--66666666666666666-XXXX-666--------------|
A|--44444444444444444-XXXX-444--------------|
E|------------------------------------------|

Verse:
e|----------------------------------------------------------|
B|----------------------------------------------------------|
G|--66666-66666--88888-88888--------------------------------|
D|--66666-66666--88888-88888--44444-44444--6666666666-(X2)--|
A|--44444-44444--66666-66666--44444-44444--6666666666-------|
E|----------------------------22222-22222--4444444444-------|
"I'm lost for you, with every moment stays true...."

e|------------------------------------------|
B|------------------------------------------|
G|------------------------------------------|
D|--44444-44444--44444-44444----------------|
A|--44444-44444--44444-44444----------------|
E|--22222-22222--22222-22222----------------|

Pre-Chorus:
e|-----------------------------------------|
B|-----------------------------------------|
G|--6-----6----6-----6---------------------|
D|--6---6---6--6---6---6--8-XXX-8888-(X2)--|
A|--4-4--------4-4--------8-XXX-8888-------|
E|------------------------6-XXX-6666-------|
"On these walls, tell the stories past of years gone by."
[ Tab from: http://www.guitaretab.com/a/amber-pacific/111705.html ]
Chorus:
e|--------------------------------------------------|
B|--------------------------------------------------|
G|--------------------------------------------------|
D|--6-6-6-6-6-6-6-6--8-8-8-8-8-8-8-8--444444444444--|
A|--6-6-6-6-6-6-6-6--8-8-8-8-8-8-8-8--444444444444--|
E|--4-4-4-4-4-4-4-4--6-6-6-6-6-6-6-6--222222222222--|

e|---------------------------------------------|
B|---------------------------------------------|
G|---------------------------------------------|
D|--88888888--66666666--4444444444444444-(X2)--|
A|--88888888--66666666--4444444444444444-------|
E|--66666666--44444444--2222222222222222-------|
"So send your letters of regret (So send letters of regret)"

Outro:
e|-----------------------------------------------------|
B|-----------------------------------------------------|
G|-----------------------------------------------------|
D|--88888--66666--4444444444--8-8--6-6---4-(LET-RING)--|
A|--88888--66666--4444444444--8-8--6-6---4-------------|
E|--66666--44444--2222222222--6-6--4-4---2-------------|
"Sing to me, speak softly now...."

-----------------------------------------------------------------------------
Lyrics:

Iím lost for you,
With every moment stays true.
I'd go as far as to say,
That I, miss you.
So far away,
I missed my one chance to say,
So long to memories of years that passed away.

On these walls, tell the stories past of years gone by,
Breaking promises,
Pictures up in black and white.
Holding back, all the words I said,
I said good bye,
Open wounds, broken hearts, 
Please stay tonight.

So send your letters of regret (So send letters of regret),
Itís not the words you never said, (Itís not the words you never said)
Sing to me, speak softly now.
Hearts will beat
That empty sound
Related for Letters Of Regret tab