Song name
# A B C D E F G H I J K L M N O P Q R S T U V W X Y Z

Amber Pacific - Video Killed The Radio Star tab

Video Killed The Radio Star by Amber Pacific
Punk Goes 80's
Tabbed by Dale Townsend

This is like my 3rd tab, i did this with my guitar teacher, we tabbed it out by ear hope it helps  you.

Tuning:Standard



INTRO X2 : GUITAR 1 PALM MUTE
e|--------------------------------|
B|--------------------------------|
G|--------------------------------|
D|-6-6-6-6-8-8-8-8----------------|
A|-4-4-4-4-6-6-6-6-4-4-4-4-6-6-6-6|
E|-----------------2-2-2-2-4-4-4-4|
INTRO X2 : GUITAR 2 (DISTORTION NO PALM MUTING)
e|--------------------------------|
B|--------------------------------|
G|--------------------------------|
D|--------------------------------|
A|-----------------------------6-6|
E|-----------------------------4-4|

VERSE X10: GUITAR 1 PALM MUTE
e|--------------------------------|
B|--------------------------------|
G|--------------------------------|
D|-6-6-6-6-8-8-8-8----------------|
A|-4-4-4-4-6-6-6-6-4-4-4-4-6-6-6-6|
E|-----------------2-2-2-2-4-4-4-4|

VERSE X4(DO NOT PLAY AFTER): GUITAR 2 (DISTORTION)
e|--------------------------------|
B|--------------------------------|
G|--------------------------------|
D|--------------------------------|
A|-----------------------------6-6|
E|-----------------------------4-4|

CHORUS X2: GUITAR 1 & GUITAR 2
  VIDEO KILLED     THE RADIO STAR
e|--------------------------------|
B|--------------------------------|
G|---------3-3-3-3----------------|
D|-6-6-6-6-4-4-4-4----------------|
A|-4-4-4-4-4-4-4-4----------------|
E|---------2-2-2-2----------------|

Bridge x 1: only tabbed guitar 1 sorry :(
 pictures came and broke your heart
e|--------------------------------|
B|--------------------------------|
G|--------------------------------|
D|--------------------------------|
A|8-8-------6-6----4-4------------|
E|6-6-------4-4----2-2------------|

e|--------------------------------|
B|--------------------------------|
G|--------------------------------|
D|--------------------------------|
A|8-8-------6-6----4--------------|
E|6-6-------4-4----2--------------|


VERSE X10: GUITAR 1 PALM MUTE
e|--------------------------------|
B|--------------------------------|
G|--------------------------------|
D|-6-6-6-6-8-8-8-8----------------|
A|-4-4-4-4-6-6-6-6-4-4-4-4-6-6-6-6|
E|-----------------2-2-2-2-4-4-4-4|

VERSE X4(DO NOT PLAY AFTER): GUITAR 2 (DISTORTION)
e|--------------------------------|
B|--------------------------------|
G|--------------------------------|
D|--------------------------------|
A|-----------------------------6-6|
E|-----------------------------4-4|

CHORUS X2: GUITAR 1 & GUITAR 2
  VIDEO KILLED     THE RADIO STAR
e|--------------------------------|
B|--------------------------------|
G|---------3-3-3-3----------------|
D|-6-6-6-6-4-4-4-4----------------|
A|-4-4-4-4-4-4-4-4----------------|
E|---------2-2-2-2----------------|

Bridge x 1: only tabbed guitar 1 sorry :(
 pictures came and broke your heart
e|--------------------------------|
B|--------------------------------|
G|--------------------------------|
D|--------------------------------|
A|8-8-------6-6----4-4------------|
E|6-6-------4-4----2-2------------|

e|--------------------------------|
B|--------------------------------|
G|--------------------------------|
D|--------------------------------|
A|8-8-------6-6----4--------------|
E|6-6-------4-4----2--------------|

tabbed by dale townsend
  
Tap to rate this tab
# A B C D E F G H I J K L M N O P Q R S T U V W X Y Z