Guitaretab - guitar tabs
Song name
# A B C D E F G H I J K L M N O P Q R S T U V W X Y Z

Amber Pacific - Watching Over Me tab

-----------------------------------------------------------------
Watching Over Me - Amber Pacific
-----------------------------------------------------------------
Tabbed by: Bair
Email: bair_morritt@hotmail.com

Tuning: Standard


Intro:
e|---------------------------------------------------------------|
B|---------------------------------------------------------------|
G|--22-22-22-2--44-44-44-4------------22-22-22-2--4--------------|
D|--22-22-22-2--44-44-44-4--44444444--22-22-22-2--4--(Let Ring)--|
A|--00-00-00-0--22-22-22-2--44444444--00-00-00-0--2--------------|
E|--------------------------22222222-----------------------------|

Verse:
e|---------------------------------------------------------------|
B|---------------------------------------------------------------|
G|----------222-22--44444444--------222222222222--444444444444---|
D|--444-44--222-22--44444444--(X4)--222222222222--444444444444---|
A|--444-44--000-00--22222222--------000000000000--222222222222---|
E|--222-22-------------------------------------------------------|
"From your words, I can tell you lost...."
[ Tab from: http://www.guitaretab.com/a/amber-pacific/155506.html ]
Chorus:
e|---------------------------------------------------------------|
B|---------------------------------------------------------------|
G|--222222------------------222--4444--------22-22-2--44-44-4-4--|
D|--222222--444444--222222--222--4444--(X2)--22-22-2--44-44-4-4--|
A|--000000--444444--222222--000--2222--------00-00-0--22-22-2-2--|
E|----------222222--000000---------------------------------------|
"We live and we fall but I'll to move on...."

-Then Verse
-Then Chorus

Interlude:
e|---------------------------------------------------------------|
B|---------------------------------------------------------------|
G|------2-2-------2-2-------2-2-------2-2------------------------|
D|----2-----2---2-----2---2-----2---2-----2--(X2)----------------|
A|--0---------0---------0---------0------------------------------|
E|---------------------------------------------------------------|

e|---------------------------------------------------------------|
B|---------------------------------------------------------------|
G|--22222222-----------------------------------------------------|
D|--22222222--22222222--44444444--22222222--(X2)-----------------|
A|--00000000--22222222--44444444--22222222-----------------------|
E|------------00000000--22222222--00000000-----------------------|
"You mean more to me now, its gone forever...."

2nd Chorus:
e|--------------------------------------------------------------------|
B|--------------------------------------------------------------------|
G|--444444------------------444--666--------44-44-4--66-66-6-6--------|
D|--444444--666666--444444--444--666--(X4)--44-44-4--66-66-6-6--(X2)--|
A|--222222--666666--444444--222--444--------22-22-2--44-44-4-4--------|
E|----------444444--222222--------------------------------------------|
"We live and we fall but I'll to move on...."

Related for Watching Over Me tab
Advertisement will be closed in 10 seconds