Song name
# A B C D E F G H I J K L M N O P Q R S T U V W X Y Z

Amber Pacific - Here We Stand tab

Title: Here We Stand
Artist/Band: Amber Pacific
Tabbed By: Vico Lao (vico_pogi@yahoo.com)

Tuning: Eb Ab Db Gb B eb

Note: I don't know the chord names, so I didn't bother to write them. Just listen to the 
concentrically and you'll figure out the strumming pattern.

Intro/Verse (Guitar 1)

eb|-3---1---0---3---1---------------|
B |--0---0---0---0---0-----0--------|
Gb|---2---2---2---2---2--2----------|
Db|---------------------------------|
Ab|---------------------------------|
Eb|---------------------------------|

Verse (Guitar 2)

eb|------------------------|
B |-0---0---0---0----------|
Gb|-0---0---0---0----------|
Db|-0---7---0---7----------|
Ab|-7---8---7---8----------|
Eb|-5---8---5---8----------|

Pre-chorus (Both guitars)

eb|------------------------|
B |-0---0---0---0----------|
Gb|-0---0---4---2----------|
Db|-7---0---5---3----------|
Ab|-8---7---5---3----------|
Eb|-8---5---3---1----------|
                            2x
eb|------------------------|
B |-0---0---0---0----------|
Gb|-0---0---4---4----------|
Db|-7---0---5---5----------|
Ab|-8---7---5---5----------|
Eb|-8---5---3---3----------|


Chorus (Both guitars)

eb|------------------------|         |---|
B |-0---0---0---0----------|         |-0-|
Gb|-0---2---0---4----------| 2x then |-2-| (let it ring)
Db|-2---3---0---5----------|         |-3-|
Ab|-3---3---7---5----------|         |-3-|
Eb|-3---1---5---3----------|         |-1-|


Verse

Pre-Chorus

2nd Chorus


After 2nd Chorus (Both guitars)

eb|------0---0-------------|
B |-0----0---0---0---0-----|
Gb|-2----0---0---2---4-----|
Db|-3----2---2---3---5-----|
Ab|-3----3---0---3---5-----|
Eb|-1------------1---3-----|

Bridge

eb|---------0-p-------------------|
B |---0-p---0-a---0--p----0---0---|
Gb|---2-a---0-u---0--a----0---0---|
Db|---3-u---2-s---0--u----2---0---|
Ab|---3-s---0-e---2--s----3---2---|
Eb|---1-e---------3--e----3---3---|

eb|-----0--------------------|
B |-0---0---0-----0--0-------|
Gb|-2---0---0-----0--0-------|
Db|-3---2---0-----0--0-------|
Ab|-3---0---2-----3--2-------|
Eb|-1-------3-----3--3-------|

Last Chorus (Both guitars)

eb|------------------------|         |---|
B |-0---0---0---0----------|         |-0-|
Gb|-0---2---0---4----------| 2x then |-2-| (let it ring)
Db|-2---3---0---5----------|         |-3-|
Ab|-3---3---7---5----------|         |-3-|
Eb|-3---1---5---3----------|         |-1-|


Enjoy! \m/
Tap to rate this tab
 
# A B C D E F G H I J K L M N O P Q R S T U V W X Y Z