Song name
# A B C D E F G H I J K L M N O P Q R S T U V W X Y Z

Amber Pacific - An Anthem For The Young At Heart tab

AMBER PACIFIC
AN ANTHEM FOR THE YOUNG AT HEART

TUNING: eBGDAD

intro guitar1 +=play 12x *=play 6x <<<=pick-slide \=slide-up
E|-------------------------------------------------------------------|
B|-------------------------------------------------------------------|
G|---+--------------+--------------*-------*------*------------------|
D|--1--------------6--------------8------10------6--------------1----|
A|\\1--------------6--------------8------10------6-------<<<<<<-1let-|
D|\\1--------------6--------------8------10------6-------<<<<<<-1ring|
intro guitar2 *=play 6x
E|-------------------------------------------------------------------|
B|---*-------*------*-------*------*-------*------*-------*----------|
G|--8------15------8------15-----10------12------8------15------8----|
D|--------------------------------------------------------------8let-|
A|--6------13------6------13------8------10------6------13------6ring|
D|-------------------------------------------------------------------|

verse1 guitar1 +=play 12x *=play m=palm-muted
E|--------------------------mmmmmmmmmm--mmmmmmmmmm-----------------mm|
B|-------------------------------------------------------------------|
G|---8-----------------------------------------------*---*---+-------|
D|--88------6-------6------1-----------1-----------10---8---6--------|
A|--66------6------66------11111111111111111111111-10---8---6------88|
D|----------6------66------11111111111111111111111-10---8---6------88|
verse1 guitar2 +=play 12x *=play m=palm-muted \=slide-up
E|--------------------------mmmmmmmmmm--mmmmmmmmmm-----------------mm|
B|-------------------------------------------------------------------|
G|---8--------------13-------------------------------*---*---+-------|
D|--88------6-----1313-----1-----------1-----------10---8---6--------|
A|--66------6-----1111----\11111111111111111111111-10---8---6------88|
D|----------6-------------\11111111111111111111111-10---8---6------88|

chorus guitar1 *=play 12x
E|--------------------------------------------------------------|
B|--------------------------------------------------------------|
G|---*---------*---------*---------*---------*---------*--------|
D|--6---------8---------1--------10---------6---------8---------|
A|--6---------8---------1--------10---------6---------8---------|
D|--6---------8---------1--------10---------6---------8---------|
chorus guitar2 !in scale with guitar1, but some chords are played longer!
E|--------------------------------------------------------------|
B|--------------------------------------------------------------|
G|-------1312101010101312888881513121212121388888810121010101010|
D|--66666----------------88888----------------------------------|
A|--666661110-8-8-8-811106666613111010101011666666-810-8-8-8-8-8|
D|--66666-------------------------------------------------------|
 
into-verse2 guitar1 +=play 12x *=play 6x <<<=pick-slide \=slide-up
E|-------------------------------------------------------------------|
B|-------------------------------------------------------------------|
G|---+--------------+--------------*-------*------*------------to----|
D|--1--------------6--------------8------10------6-------------verse2|
A|\\1--------------6--------------8------10------6-------<<<<<<------|
D|\\1--------------6--------------8------10------6-------<<<<<<------|
into-verse2 guitar2 *=play 6x
E|-------------------------------------------------------------------|
B|---*-------*------*-------*------*-------*------*-------*----------|
G|--8------15------8------15-----10------12------8------15------8----|
D|--------------------------------------------------------------8let-|
A|--6------13------6------13------8------10------6------13------6ring|
D|-------------------------------------------------------------------|

verse2 guitar1 +=play 12x *=play m=palm-muted
E|-|------------|-----------mmmmmmmmmm--mmmmmmmmmm-----------------mm|
B|-|-----8------|----8-----------------------------------------------|
G|-|---8---8-8--|--8---8-8---------------------------*---*---+-------|
D|-|--8-----8-8-|-8-----8--1-----------1-----------10---8---6--------|
A|-|-6----------|6---------11111111111111111111111-10---8---6------88|
D|-|--3times----|----------11111111111111111111111-10---8---6------88|
verse2 guitar2 +=play 12x *=play m=palm-muted \=slide-up
E|--------------------------mmmmmmmmmm--mmmmmmmmmm-----------------mm|
B|-------------------------------------------------------------------|
G|---------------------------------------------------*---*---+-------|
D|-----PAUSE---PAUSE-------1-----------1-----------10---8---6--------|
A|------------------------\11111111111111111111111-10---8---6------88|
D|------------------------\11111111111111111111111-10---8---6------88|

chorus guitar1*=play 12x
E|--------------------------------------------------------------|
B|--------------------------------------------------------------|
G|---*---------*---------*---------*---------*---------*--------|
D|--6---------8---------1--------10---------6---------8---------|
A|--6---------8---------1--------10---------6---------8---------|
D|--6---------8---------1--------10---------6---------8---------|
chorus guitar2 !in scale with guitar1, but some chords are played longer!
E|--------------------------------------------------------------|
B|--------------------------------------------------------------|
G|-------1312101010101312888881513121212121388888810121010101010|
D|--66666----------------88888----------------------------------|
A|--666661110-8-8-8-811106666613111010101011666666-810-8-8-8-8-8|
D|--66666-------------------------------------------------------|

bridge guitar1&2 *=play 12x %=pause /=slide-down m=palm-muted
E|--mm------mm----mm-m---mm------mm----mm-m--|mm------mm----mm-m----|
B|-------------------------------------------|----------------------|
G|-------------------------------------------|----------------------|
D|---------------------8--------------------8|-------------------8--|
A|--11------11----11-1/8-66------66----66-6/8|11------11----11-1/8--|
D|--11------11----11-1/8-66------66----66-6/8|11------11----11-1/8--|
bridge guitar1&2                             |guitar3 enters
--m-m-m-m-m-m-m-m-mmmmmmmm---%--%|
-----------------------------%--%|
-----------------------------%--%|
---------------------------88%88%|
--6-6-6-6-6-6-6-6-88888888-88%88%|
--6-6-6-6-6-6-6-6-88888888-88%88%|
bridge guitar3 (with effect, let ring all notes)
E|-------------------15--15--13--13----|
B|--16--16--16---16--------------------|
G|----15--15--15---15--15--15--15--15--|
D|-------------------------------------| 2times
A|-------------------------------------|
D|-------------------------------------|

chorus guitar1 *=play 12x !first time last chord played longer!
E|--------------------------------------------------------------|
B|--------------------------------------------------------------|
G|---*---------*---------*---------*---------*---------*--------|
D|--6---------8---------1--------10---------6---------8---------| 2times
A|--6---------8---------1--------10---------6---------8---------|
D|--6---------8---------1--------10---------6---------8---------|
chorus guitar2 !in scale with guitar1, but some chords are played longer!
E|--------------------------------------------------------------|
B|--------------------------------------------------------------|
G|-------1312101010101312888881513121212121388888810121010101010|
D|--66666----------------88888----------------------------------| 2times
A|--666661110-8-8-8-811106666613111010101011666666-810-8-8-8-8-8|
D|--66666-------------------------------------------------------|

outro guitar1&2 m=palm-muted /=slide-down
E|--mm------mm----mm-m---mm--|
B|---------------------------|
G|---------------------------|
D|---------------------8-----|
A|--11------11----11-1/8-11--|
D|--11------11----11-1/8-11--|
outro guitar3 (with effect, let ring all notes)
E|-------------------15--15--13--13------|
B|--16--16--16---16------------------16--|
G|----15--15--15---15--15--15--15--1515--|
D|---------------------------------------|
A|---------------------------------------|
D|---------------------------------------|
Tap to rate this tab
# A B C D E F G H I J K L M N O P Q R S T U V W X Y Z