Song name
# A B C D E F G H I J K L M N O P Q R S T U V W X Y Z

Amber Pacific - Take Me From This Place tab

------------------------------------------------------------------------------------------------
                                                      Take Me From This Place - Amber Pacific
------------------------------------------------------------------------------------------------

Tabbed by: Gaffers1996
E-mail: gaffers1996@gmail.com

Tuning: Standard (EADGBe)

This is for the solo and the intro as the other tab is pretty much perfect except for these two
things. Hope you agree with what I've written!

Guitar 1

e|-------------------------------------------------------|
b|-------------------------------------------------------|
g|-4---------4-------------------------4-----------------|
d|-4-x8-2----4-x8-4----6----2----4-----4-----------------|
a|-2----2-x8-2----4-x8-6-x8-2-x8-4-x16-2-----------------|
E|------0---------2----4----0----2-----------------------|

Guitar 2
e|------------------------------------------------------|
b|------------------------------------------------------|
g|-11-999-9-888-8-666-6-888-11-999-9-888-8-666-6-444----|
d|--x-xxx-x-xxx-x-xxx-x-xxx--x-xxx-x-xxx-x-xxx-x-xxx----|
a|--9-777-7-666-6-444-4-666--9-777-7-666-6-444-4-222----|
E|------------------------------------------------------|

e|------------------------------------------------------|
b|-11-999-9-888-8-666-6-888-6--9--8--6--4---------------|
g|--x-xxx-x-xxx-x-xxx-x-xxx-x--x--x--x--x---------------|
d|--9-777-7-666-6-444-4-666-4--7--6--4--2---------------|
a|------------------------------------------------------|
E|------------------------------------------------------|

Solo
e|----------------------------------------------------------------------------|   |------------|
b|----------------------------------------------------------------------------|   |------------|
g|----------------11-x4-9-x4-8-x4-6-x4-9-x4-8-x4-4-x4-8-x4-6-x4-4-x4-3-x4-----|   |------------|
d|-6-x8-8-x4-9-x4---------------------------------------------------------4-x4|x2 |-4/6--------|
a|----------------------------------------------------------------------------|   |------------|
E|----------------------------------------------------------------------------|   |------------|
Tap to rate this tab
# A B C D E F G H I J K L M N O P Q R S T U V W X Y Z