Song name
# A B C D E F G H I J K L M N O P Q R S T U V W X Y Z

Amber Pacific - Everything We Were Has Become What We Are tab

                       Amber Pacific
                Everything We Were Has Become

Added By :RocKdrIgo
          rodrigo_chupe_pkm@hotmail.com

|---------------------------------------------------------------|
|---------------------------------------------------------------|
|--------4p0--------------------------4p0-----------------------|
|-2-2-2------5p0-4p0-5p0-7-5-4-2-2-2------5p0-4p0-5p0-7-5-4-----|
|-2-2-2------------------------2-2-2----------------------------|
|-2-2-2------------------------2-2-2----------------------------|

|--------------------------------------------------------------|
|--------------------------------------------------------------|
|--------4p0--------------------------4p0-----7p0-4p0-4--------|
|-5-5-5------5p0-4p0-5p0-7-5-4-7-7-7------5p0-----------5-4----|
|-5-5-5------------------------7-7-7---------------------------|
|-3-3-3------------------------5-5-5---------------------------|
Tap to rate this tab
 
# A B C D E F G H I J K L M N O P Q R S T U V W X Y Z