Guitaretab - guitar tabs
Song name
# A B C D E F G H I J K L M N O P Q R S T U V W X Y Z

Amber Pacific - Save Me From Me Acoustic tab

I play it (and therefore tabbed it) in Drop D (DADGBE).  Amber Pacific plays it in Drop
(half-step down on every string) if you want to play it like them, go Drop Db and add
to every number on the tab, but play the Db chord
as:     instead of:
 -		 -
 -		 -
 7		 7
 0		 7
 0		 5
 0		 -
Later I'll repost the complete tab in the correct tuning.  Also, there are a few parts
are incomplete.  For example, the last playing of the chorus has a different lead part,
i can't figure it out.  If you figure it out, or if you have any other corrections, 
me at reganisthekiller@hotmail.com

Intro x4
|--4~|
|2---|
|-3--|
|----|
|----|
|----|


Chorus x1 (both guitars)
|--------------------------------------------|
|--------------------------------------------|
|10101010101010106666666688888888101010108888|
|8-8-8-8-8-8-8-8-44444444666666668-8-8-8-6666|
|8-8-8-8-8-8-8-8-44444444666666668-8-8-8-6666|
|8-8-8-8-8-8-8-8-44444444666666668-8-8-8-6666|


Verse x2 (both guitars)
|--------------------------------------|
|--------------------------------------|
|101010xx101010666xx666666xx666888xx888|
|8-8-8-xx8-8-8-444xx444666xx666666xx666|
|8-8-8-xx8-8-8-444xx444444xx444666xx666|
|8-8-8-xx8-8-8-444xx444--------666xx666|


fill 1 x4 (guitar 1) fill 2 x4 (guitar 2)
|--4~|                |----------|
|2---|           |---------------|
|-3--|              |66666666----|
|----|             |44444444-----|
|----|             |44444444-----|
|----|             |44444444-----|


Chorus Lead x2 (guitar 1)
|----------------------------------------------------------|
|----------------------------------------------------------|
|101010101010101011111111111111\10\888888881313131313131313|
|x-x-x-x-x-x-x-x-x-x-x-x-x-x-x--x--xxxxxxxxx-x-x-x-x-x-x-x-|
|8-8-8-8-8-8-8-8-9-9-9-9-9-9-9-\8-\666666661111111111111111|
|----------------------------------------------------------|

Repeat Chorus x2 (guitar 2)


fill 3 x2 (guitar 1) fill 4 x2 (guitar 2)
|---------|          |--------|
|---------|          |--------|
|10/11\8\6|          |66666666|
|x--x--x-x|          |66666666|
|8-/9-\6\4|          |44444444|
|---------|          |--------|

[ Tab from: http://www.guitaretab.com/a/amber-pacific/84238.html ]
Verse Lead x2 (guitar 1)
|---------------------------------|
|---------------------------------|
|--6-5-6---6-5-6---6-5-6---8-6-5h6|
|-6-6-6-6-6-6-6-6-6-6-6-6-6-6-6---|
|8-------9-------8-------6--------|
|---------------------------------|

Repeat Verse x2 (guitar 2)


Repeat fill 1 x4 (guitar 1)

Repeat fill 2 x4 (guitar 2)


Repeat Chorus Lead x2 (guitar 1)

Repeat Chorus x2 (guitar 2)


Bridge x1 (both guitars)
|----------------------------------------|
|----------------------------------------|
|6666666688888888101010101010101066666666|
|44444444666666668-8-8-8-8-8-8-8-66666666|
|44444444666666668-8-8-8-8-8-8-8-44444444|
|44444444666666668-8-8-8-8-8-8-8---------|


Bridge Pt. 2 Lead (guitar 1)
|------------------------------------------------------------|
|------------------------------------------------------------|
|666666668888888810101010101010106666666688888888101010108888|
|4444444466666666x-x-x-x-x-x-x-x-xxxxxxxx666666668-8-8-8-6666|
|4444444466666666111111111111111144444444666666668-8-8-8-6666|
|4444444466666666------------------------666666668-8-8-8-6666|

|------------------|
|------------------|
|66666666------6-5~|
|44444444-----6-6--|
|44444444(x3)8-----|
|44444444----------|

Bridge Pt. 2 x1 (guitar 2)
|------------------------------------------|
|------------------------------------------|
|666666668888888810~10\6~6/8~8/101010108888|
|44444444666666668~-8-\4~4/6~6/8-8-8-8-6666|
|44444444666666668~-8-\4~4/6~6/8-8-8-8-6666|
|44444444666666668~-8-\4~4/6~6/8-8-8-8-6666|

|-----------------------------------xx|
|-----------------------------------xx|
|101010x101010666x666888x888-8------xx|
|8-8-8-x8-8-8-444x444666x666-6------xx|
|8-8-8-x8-8-8-444x444666x666-6------xx|
|8-8-8-x8-8-8-444x444666x666-6------xx|


Repeat Chorus Lead x2 (guitar 1)

Repeat Chorus x2 (guitar 2)


Chorus Lead 2 x2 (guitar 1)
|--------------------------------------|
|--------------------------------------|
|101010xx1111\10/1188/10/11101010108888|
|8-8-8-xxx-x--x--x-xx-x--x-8-8-8-8-6666|
|8-8-8-xx9-9-\8-/9-66/8-/9-8-8-8-8-6666|
|8-8-8-xx------------------8-8-8-8-6666|

Repeat Chorus (different strum pattern) x2 (guitar 2)


Ending x1 (both guitars)
|-------------|
|-------------|
|66666666--10~|
|44444444--8~-|
|44444444--8~-|
|44444444--8~-|
Related for Save Me From Me Acoustic tab
Advertisement will be closed in 10 seconds