Guitaretab - guitar tabs
Song name
# A B C D E F G H I J K L M N O P Q R S T U V W X Y Z

Amber Pacific - Fall Back Into My Life tab

-------------------------------------------------------------------------------
			     Fall back into my life
Amber Pacific
-------------------------------------------------------------------------------
Tabbed by: cHrIs FlOwErS
Email:  clf-me-myself-and-i@hotmail.com

Tuning: standard

Wanted to put in a almost complete tab XD if you have questions email me cuz I cant get 
UG account for some reason

Lead intro (with wah or flange or something the whole way through)
e|-------------------|-------------------------------------------------------|
B|--------77555444---|--------7----------------------------------------------|
G|--333444--------22-|-333444-4----------------------------------------------|
D|-------------------|-------------------------------------------------------|
A|-------------------|-------------------------------------------------------|
E|-------------------|-------------------------------------------------------|
                ^that 4 times then this^
Rhythm intro
e|-----------------------------------------------------------------------------|
B|-----------------------------------------------------------------------------|
G|-44444444--------------------------------------------------------------------|
D|-44444444-44444444-66666666-22222222~----------------------------------------|
A|-22222222-44444444-66666666-22222222~----------------------------------------|
E|----------22222222-44444444-00000000~----------------------------------------|
  ^ comes in after the first lead riff
Verse rhythm
e|-----------------------------------------------------|-----------------------|
B|-----------------------------------------------------|-----------------------|
G|-44444444--------------------------------------------|-----------------------|
D|-44444444-44444444-66666666-22-222-------------------|--2~-222---------------|
A|-22222222-44444444-66666666-22-222-------------------|--2~-222---------------|
E|----------22222222-44444444-00-000-------------------|--0~-000---------------|
   ******** ******** ******** ** ***
  ^do that twice, second time lead comes in and the replace the Em with^
[ Tab from: http://www.guitaretab.com/a/amber-pacific/89448.html ]
Lead verse                          pre chorus rhythm
e|-7-7-7-7-9-9-9-9-7-7-9-9-6-6-6--|------------------------------------------|
B|--7-7-7-7-7-7-7-7-7-7-7-7-7-7-7-|------------------------------------------|
G|--------------------------------|------------------------------------------|
D|--------------------------------|--4444------------------------------------|
A|--------------------------------|--4444------------------------------------|
E|--------------------------------|--2222------------------------------------|
                                     ****
  Chorus rhythm sorry, donít know the lead for this, wah or flange is too messy >.<
e|---------------------------------------------------------------------------|
B|---------------------------------------------------------------------------|
G|-----------4444-----------4444---------------------------------------------|
D|-6666-2222-4444-4444-2222-4444-4444--4444----------------------------------|X2
A|-6666-2222-2222-4444-2222-2222-4444--4444----------------------------------|
E|-4444-0000------2222-0000------2222--2222----------------------------------|
                                       ****
After chorus repeat intro

 Verse 2 lead
e|-------------------------|-7-7-9-9-6-6-6-----------------------------------|
B|-------77555444----------|--7-7-7-7-7-7-7~---------------------------------|
G|-333444--------44--------|-------------------------------------------------|
D|-------------------------|-------------------------------------------------|
A|-------------------------|-------------------------------------------------|
E|-------------------------|-------------------------------------------------|
   ****************
            ^ 4 times then this^

Interlude 
e|-------------------------------------|-------------------------------------|
B|-00000000-77777777-00000000-99999/11-|-7-7-4-4-5-4-2-0---------------------|
G|-11111111-88888888-11111111-99999/11-|-------------------------------------|
D|-------------------------------------|-------------------------------------|
A|-------------------------------------|-------------------------------------|
E|-------------------------------------|-------------------------------------|
                                                 ^after this repeat first part

e|---------------------------------------------------------------------------|
B|--4-2-5-4-2----------------------------------------------------------------|
G|------------4-3-4-1-1-1-1-4-4-3~-------------------------------------------|
D|---------------------------------------------------------------------------|
A|---------------------------------------------------------------------------|
E|---------------------------------------------------------------------------|
                                   ^ pick slide then do chorus and end finally with the leadís intro

| /  slide up
| \  slide down
| h  hammer-on
| p  pull-off
| ~  vibrato
| +  harmonic
| x  Mute note
===============================================================================
Related for Fall Back Into My Life tab