Song name
# A B C D E F G H I J K L M N O P Q R S T U V W X Y Z

Amber Pacific - Rule 76 tab

-----------------------------------------------------------------
Rule 76 - Amber Pacific
-----------------------------------------------------------------
Tabbed by: Bair
Email: bair_morritt@hotmail.com

Tuning: Standard

**This is the entire track. It's just a really simple lick because it's
the intro to the album Truth in Sincerity. The riff is backed up by some
rad sounding orchestra thought.**

Main Riff:
e|---------------------------------------------------------------|
B|--6---6---6---6---7---7---7---7---6---6---6---6----------------|
G|----6---6---6---6---6---6---6---6---6---6---6---6--------------|
D|---------------------------------------------------------------|
A|---------------------------------------------------------------|
E|---------------------------------------------------------------|

e|---------------------------------------------------------------|
B|--4---4---4---4------------------------------------------------|
G|----5---5---5---5----------------------------------------------|
D|---------------------------------------------------------------|
A|---------------------------------------------------------------|
E|---------------------------------------------------------------|

**Play this over and over until the end, its only 50 seconds long.**
Tap to rate this tab
# A B C D E F G H I J K L M N O P Q R S T U V W X Y Z