Song name
# A B C D E F G H I J K L M N O P Q R S T U V W X Y Z

Amber Pacific - Your Only Young Once tab

-------------------------------------------------------------------------------
			     Your Only Young Once- 
Amber pacific
-------------------------------------------------------------------------------
Tabbed by: cHrIs Flowers
Email:clf-me-myself-and-i@hotmail.com

Tuning: standard

About positive this intro is right

e|---------------------------------------------------------------------------|
B|---16-16h17-16---16-16h17-16---14-16-14---14-16-14---14-16-14---14-16------|
G|-13------------11------------11---------11---------11---------11-----------|
D|---------------------------------------------------------------------------|
A|---------------------------------------------------------------------------|
E|---------------------------------------------------------------------------|

e|---------------------------------------------------------------------------|
B|-------16-------------16------------14--14---14h16p14-12-------------------|
G|-13-16----16----11-16----16----11-16--16--16-------------------------------|
D|---------------------------------------------------------------------------|
A|---------------------------------------------------------------------------|
E|---------------------------------------------------------------------------|

  Then after the first chorus,  this mixed in with a bunch of harmonics
e|---------------------------------------------------------------------------|
B|---------------------------------------------------------------------------|
G|--4-4-4-6-8-6-6-6-8-6-4-4-4-6-8~~------------------------------------------|
D|---4-4-------4-4-------4-4-------------------------------------------------|
A|---------------------------------------------------------------------------|
E|---------------------------------------------------------------------------|


| /  slide up
| \  slide down
| h  hammer-on
| p  pull-off
| ~  vibrato
| +  harmonic
| x  Mute note
===============================================================================
Tap to rate this tab
# A B C D E F G H I J K L M N O P Q R S T U V W X Y Z