Song name
# A B C D E F G H I J K L M N O P Q R S T U V W X Y Z

Amber Pacific - Summer In B tab

-------------------------------------------------------------------------------
			     Summer In B – Amber Pacific
-------------------------------------------------------------------------------
Tabbed by:cHrIs FlOwErS
Email:clf-me-myself-and-i@hotmai.com

Tuning: standard

For the sake of time, my sanity, and space im not putting up every note, like every time 
strings are played. If theres a irregular playing tempo thing I’ll put it but otherwise 
maybe once or twice. So please post comments, rate and ask questions and I’ll answer =D


 Intro  Rythym              Intro Lead
e|-----------------------|----------------------------|
B|-----------------------|----------------------------|
G|-----------------------|---9---8---4---11---6---3---|
D|-2------9------6-----4-|---x---x---x---x----x---x---|
A|-2------9------6-----4-|---7---6---2---9----4---1---|
E|-0------7------4-----2-|----------------------------|

 Verse Rythym
e|-------------------------------------------|    |------------|
B|-------------------------------------------|    |------------|
G|-------------------------------------------|    |------------|
D|-66-666-6-22-222-2-77-777-7-44-444-4-2-6-4-|X2  |--9---------|
A|-66-666-6-22-222-2-77-777-7-44-444-4-2-6-4-|    |--9---------|
E|-44-444-4-00-000-0-55-555-5-22-222-2-0-4-2-|    |--7---------|
   ** *** * ** *** * ** *** * ** *** * * * *        ^ end on
                                       ^ for this keep the same rythym as before

 Pre Chorus Rythym
e|---------------------------|
B|---------------------------|  as far as I can tell the lead doesn’t come in for much
G|---------------------------|   on the pre chorus, I could be wrong but I dunno.
D|-2---9---4---6---2---9---4-|
A|-2---9---4---6---2---9---4-|
E|-0---7---2---4---0---7---2-|
				    ^ pick slide from lead in here

 Chorus Rythym                             Chorus Lead
e|---------------------------------------|----------------------|------------|
B|---------------------------------------|----------------------|------------|
G|---------------------------------------|-4--11--4--11--16--15-|-11---------|
D|-9---2---6---4--444-4---9---2---6--4--2|-x--x---x--x---x---x--|-x----------|
A|-9---2---6---4--444-4---9---2---6--4--2|-2--9---2--9---14--13-|-9----------|
E|-7---0---4---2--222-2---7---0---4--2--0|----------------------|------------|
              |** *** *|                   ^this bit twice also   ^second time end on this
                  ^ this bit twice

 Pre Verse Rythym       Pre Verse Lead
e|----------------|   |----------14----------14----------14----------------------|
B|----------------|   |-12-11-12----12-11-12-------11-12-------11-12-14-12-11----|
G|----------------|   |-------------------------13----------13-------------------|
D|-6---2---9---4--|   |----------------------------------------------------------|
A|-6---2---9---4--|   |----------------------------------------------------------|
E|-4---0---7---2--|   |----------------------------------------------------------|

e|----------14----------14---------------------------------------------------|
B|----11-12-------11-12-----11p9---11p9---11p9---9p7--9~~--------------------|
G|-11----------11---------------11-----11-----11----9-------6--11--4---------|
D|----------------------------------------------------------x--x---x---------|
A|----------------------------------------------------------4--9---2---------|
E|---------------------------------------------------------------------------|

                                                            ^ this part goes into the verse
For the second verse Rythym does the same as the first verse but comes after the pick 
when he says “From the Heart…”

 Pre Chorus Lead ** Rythym is the same as before but now lead comes in
e|------------------------|
B|------------------------|
G|-9--8--6—-11--4--8--6---|
D|-x--x--x--x---x--x--x---|
A|-7--6--4--9---2--6--4---|
E|------------------------|

 At End of Second Chorus the guitars go up to this
   Rythym   Lead
e|--------|------|
B|--------|------|
G|--------|-18---|
D|-4------|-x----|
A|-4------|-16---|
E|-2------|------|

  INTERLUDE RYTHYM *the beat that you play the strings here is weird and too hard to tab 
                                                                   \                    
your brain =)
e|--------------------|
B|--------------------|         Sadly lead here is random and hard to tab, but the main event
G|--------------------|X2         is near.
D|-2--9--6--4--2--9--4|
A|-2--9--6--4--2--9--4|
E|-0--7--4--2--0--7--2|

   LEAD SOLO *FINALY THE MAIN EVENT!!! Most of it is right but he uses a whammy so its 
to   \                                       get it all right
e|---------------------------------------------------------------------------|
B|---------------------------------------------------------------------------|
G|------8------11------15b15-11------8--13-11-------13-11-------13-11--------|
D|-9-11---11-9----9-11----------9-11----------13-11-------13-11-------13-11--|
A|---------------------------------------------------------------------------|
E|---------------------------------------------------------------------------|

e|-------------------------------------------------14---------------14-------|
B|---------------------------------------------------------------------------|
G|----------15-15-+--13-15-15-15-16-16-16--13h15h16—-16p15--13h15h16--16p15--|
D|-13-11-13------------------------------------------------------------------|
A|---------------------------------------------------------------------------|
E|---------------------------------------------------------------------------|
                  ^ hard harmonic, don’t know fret
e|------------------------------------------------------------|
B|-21-19-17-16-17-16-17-16------------------------------------|
G|-------------------------16----16---------------------------|
D|----------------------------16----16-14-13-14-13-14-13------|
A|-------------------------------------------------------14---|
E|------------------------------------------------------------|
                                                      v end on this
e|-------18-16----------18-16----------18-16---------19----------------------|
B|-16-19-------19-16-19-------19-16-19-------19------------------------------|
G|---------------------------------------------------------------------------|
D|---------------------------------------------------------------------------|
A|---------------------------------------------------------------------------|
E|---------------------------------------------------------------------------|
                                                 ^ then a bunch of lower whammy
                                                    action I don’t know

after that do the rythym chorus but muted. Finaly the chorus changes a little in the end 
its so little theres little purpose.

| /  slide up
| \  slide down
| h  hammer-on
| p  pull-off
| ~  let ring
| +  harmonic
| x  Mute note
===============================================================================
Tap to rate this tab
 
# A B C D E F G H I J K L M N O P Q R S T U V W X Y Z