Song name
# A B C D E F G H I J K L M N O P Q R S T U V W X Y Z

Amberian Dawn - River Of Tuoni tab

Heyys bradleishman14@live.com.au and this is so
far from what i can see the ONLY text tab of this
song and i seem to have quiet a few tabs online for 
only a 15 year old not bad aye :P so well enjoy what 
ive worked out :P

Intro
E--------8-10-12-8----10-8-7-------------| 
B-10-12------------10-------10-12-11-8-7-| 
G----------------------------------------|
D----------------------------------------|
A----------------------------------------|
E----------------------------------------| 

E--------8-10-12-8----10-8-7-------------------|
B--10-12-----------10--------10-12h13p12h13p12-|
G----------------------------------------------|
D----------------------------------------------|
A----------------------------------------------|
E----------------------------------------------|

E-------8-10-12-8----10-8-7--------------|
B-10-12-----------10--------10-12-11-8-7-|
G----------------------------------------|
D----------------------------------------|
A----------------------------------------|
E----------------------------------------|

E-------8-10-12-8----10-8-7-------------------------------|
B-10-12-----------10--------10--12b--11h12p11h12p11h12p11-|
G---------------------------------------------------------|
D---------------------------------------------------------|
A---------------------------------------------------------|
E---------------------------------------------------------|

Email me if theres anything wrong with it and ill re-tab it
Tap to rate this tab
# A B C D E F G H I J K L M N O P Q R S T U V W X Y Z