Guitaretab - guitar tabs
Song name
# A B C D E F G H I J K L M N O P Q R S T U V W X Y Z

Amberlife - My Way tab

e|---------------------------------------------------------------------------|
B|---------------------------------------------------------------------------|
G|--10~~~~10-10-10/12121212/14-14/9~~~~9-9-9/10-10-10/12-12-12/--------------|
D|--12~~~~12-12-12/14141414/15-15/11~~111111/12-12-12/14-14-14/--------------|
A|---------------------------------------------------------------------------|
E|---------------------------------------------------------------------------|

e|---------------------------------------------------------------------------|
B|---------------------------------------------------------------------------|
G|-/10~~~~10-10-10/12121212/14-14/9~~~~~~10-10-10-10-10---10-10-10-10-10-----|
D|-/12~~~~12-12-12/14141414/15-15/11~~~~~--------------12---------------12---|
A|---------------------------------------------------------------------------|
E|---------------------------------------------------------------------------|

e|---------------------------------------------------------------------------|
B|---------------------------------------------------------------------------|
G|--10-12br-12brp10-12-10-12-10-12br-12vvvv--10-10-10-10-10---10-10-10-10-10-|
D|--------------------------------------------------------12---------------12|
A|---------------------------------------------------------------------------|
E|---------------------------------------------------------------------------|
[ Tab from: http://www.guitaretab.com/a/amberlife/139312.html ]
e|---------10--------------------------XX-13-XX-13-XX-13-XX-13-XX-15-XX-15-----|
B|-----13b---1310----------------------XX-15-XX-15-XX-15-XX-15-XX-17-XX-17-----|
G|-1010----------13p12p10--12b-12vvvv------------------------------------------|
D|-----------------------------------------------------------------------------|
A|-----------------------------------------------------------------------------|
E|-----------------------------------------------------------------------------|

e|-XX-15-XX-15-XX-13-XX-13-XX-13-XX-13-XX----10---10---10--------------------|
B|-XX-17-XX-17-XX-15-XX-15-XX-15-XX-15-XX-13b--13b--13b---1313-1212-1010-----|
G|---------------------------------------------------------------------------|
D|---------------------------------------------------------------------------|
A|---------------------------------------------------------------------------|
E|---------------------------------------------------------------------------|

e|---------------------------------------------------------------------------------|
B|---------------------------------------------------------------------------------|
G|-12-10---------------------------------------------------------------------------|
D|------12-------------------------------------------------------------------------|
A|---------------------------------------------------------------------------------|
E|---------------------------------------------------------------------------------|
Related for My Way tab
×
My Way