Song name
# A B C D E F G H I J K L M N O P Q R S T U V W X Y Z

Ambry - Linguistic Relativity For Horses tab

Dropped D tuning
i've seen ambry play live a couple times and i've watched them play this song every time 
im about 100% sure this is right. to get all the strumming correct listen to the song

www.myspace.com/ambryrock

intro
e|-----------------------------------------------------|
b|----------------------3333---------------------------|
g|-----2-------2/4------0000--22222---2/4--------------|
d|---0---0---0----------0000--00000-0------------------|
a|-2-------0-------4444/5555--22220--------4444/5555---|
D|-----------------4444/5555---------------4444/5555---|

verse
|-------------------------------------555-------|
|---------------3333-----------------3333-------|
|-22222-2-------0000---22222-2-------0000-------|
|-00000-0-------0000---00000-0-------0000-------|
|-22220-0--4444/5555---22220-0--4444/5555-------|
|----------4444/5555------------4444/5555-------|

|-----------------------------------------------|
|---------------3333-----------------3333-------|
|-22222-2-------0000---22222-2-------0000-------|
|-00000-0-------0000---00000-0-------0000-------|
|-22220-0--4444/5555---22220-0--4444/5555-------|
|----------4444/5555------------4444/5555-------|

chorus(if i whispered..)
|-----------------|
|-----------------|
|-14--12--11--9---|
|-0---0---0---0---| (x3)
|-x---x---x---x---|
|-9---9---9---9---|

(right next to..)
|----------------|
|----------------|
|-14--12--11--9--|
|-0---0---0---0--|
|-x---x---x---x--|
|-9---9---9---7--|

interlude
|
|----8/7---------------|
|-7--7-7---------------|
|-0--0-0----------*7---|
|-x--x-x--2/4/5-x-*7---|
|-5--5-5--2/4/5-x-*7---|

VERSE

Chorus

postchorus
(to meeeeeeeee)
|------|
|------|
|--9---|
|--0---|
|--x---
|--7---

Bridge
(summers here..)
|--------------|
|--------------|
|-7--9--7--6---|
|-0--0--0--0---|
|-x--x--x--x---|
|-9--7--4--5---|

midBrigde
(I needed this...)
|-------------------------------xxx---|
|-------------------------------xxx---|
|-11------7-------7-------7-----xxx---|
|-0-------0-------0-------0-----xxx---|
|-x-------x-------x-------x-----xxx---|
|-9-------5-------9-------5-----xxx---|

BRIDGE

end on
|-------|
|-------|
|---7---|
|---0---|
|---x---|
|---9---|

or

|-------|
|-------|
|---7---|
|---0---|
|---x---|
|---5---|

i like both haha
Tap to rate this tab
 
# A B C D E F G H I J K L M N O P Q R S T U V W X Y Z