Song name
# A B C D E F G H I J K L M N O P Q R S T U V W X Y Z

Ambulance Ltd - Ophelia Acoustic tab


e|-----------------------------------------------------------------------|
B|-----------------------------------------------------------------------|
G|-9---9--9--9--9--9---6-6-6-6-6-6-6---6-6-6-6-6-6---3-3-3-3-3-3---------|
D|-9---9--9--9--9--9---6-6-6-6-6-6-6---7-7-7-7-7-7---4-4-4-4-4-4---------|
A|-7---7--7--7--7--7---4-4-4-4-4-4-4---7-7-7-7-7-7---4-4-4-4-4-4---------|
E|-------------------------------------5-5-5-5-5-5---2-2-2-2-2-2---------|
  There's still life in the heart, you're coming down, I'm going with you.
  It's easier in the soft, light of the shimmering, shine windows.

e|-----------------------------------------------------------------------|
B|-----------------------------------------------------------------------|
G|-9---9--9--9--9--9---6-6-6-6-6-6-6---6-6-6-6-6-6---3-3-3-3-3-3---------|
D|-9---9--9--9--9--9---6-6-6-6-6-6-6---7-7-7-7-7-7---4-4-4-4-4-4---------|
A|-7---7--7--7--7--7---4-4-4-4-4-4-4---7-7-7-7-7-7---4-4-4-4-4-4---------|
E|-------------------------------------5-5-5-5-5-5---2-2-2-2-2-2---------|
  And babe, I'd like you to meet someone, when you meet them, please be
  serious.
  she thinks it doesn't matter, if you're familiar with her sisters,
  and her disease.

e|-----------------------------------------------------------------------|
B|-----------------------------------------------------------------------|
G|-666---------666---------666---------666-------------------------------|
D|-666-444-777-666-444-777-666-444-777-666-444---------------------------|
A|-444-444-777-444-444-777-444-444-777-444-444---------------------------|
E|-----222-555-----222-555-----222-555-----222---------------------------|
  I hate the one thing I need, I just don't trust you now baby.
  All over the leaves on the ground,

e|---------------------------------|
B|---------------------------------|
G|---------------------------------|
D|-7----4----7----4----------------|
A|-7-x8-4-x8-7-x8-4-x8-------------|
E|-5----2----5---------------------|
  I walk around.


e|-------4---4--4---4-------5-4-0---------------------|
B|-0-----4h5-4--4h5-4-------5-4-0--0------------------|
G|-9-----6---6--6---6-------6-6-6--3------------------|
D|-9-x8--6---6--6---6----7--7-7-7--4-x8---------------|
A|-7-----4---4--4---4---7-7-7-7-7--4------------------|
E|-0-------------------5-----------2------------------|


e|---------------4---4--4---4-------5-4-0---------------------|
B|---0-----------4h5-4--4h5-4-------5-4-0--0------------------|
G|---9----99-9---6---6--6---6-------6-6-6--3------------------|
D|---9-x3-99-9---6---6--6---6----7--7-7-7--4-x8---------------|
A|-6s7----66-0---4---4--4---4---7-7-7-7-7--4------------------|
E|---0-------------------------5-----------2------------------|

e|-----------------------------------------------------------------------|
B|-----------------------------------------------------------------------|
G|-9---9--9--9--9--9---6-6-6-6-6-6-6---6-6-6-6-6-6---3-3-3-3-3-3---------|
D|-9---9--9--9--9--9---6-6-6-6-6-6-6---7-7-7-7-7-7---4-4-4-4-4-4---------|
A|-7---7--7--7--7--7---4-4-4-4-4-4-4---7-7-7-7-7-7---4-4-4-4-4-4---------|
E|-------------------------------------5-5-5-5-5-5---2-2-2-2-2-2---------|
  I'm late for hundred of things, the wall are thin, but I can't reach
  through them.
  I'm chasing dragons down the streets, my eyes are feeble, and filled with
  poison.


e|-----------------------------------------------------------------------|
B|-----------------------------------------------------------------------|
G|-9---9--9--9--9--9---6-6-6-6-6-6-6---6-6-6-6-6-6---3-3-3-3-3-3---------|
D|-9---9--9--9--9--9---6-6-6-6-6-6-6---7-7-7-7-7-7---4-4-4-4-4-4---------|
A|-7---7--7--7--7--7---4-4-4-4-4-4-4---7-7-7-7-7-7---4-4-4-4-4-4---------|
E|-------------------------------------5-5-5-5-5-5---2-2-2-2-2-2---------|
  And babe, Im just like the best thing, that could happen, happen to
  someone.
  Now I'm seething from the inside, plastered to the outside,reaching to
  your side, under the sheets.


e|-----------------------------------------------------------------------|
B|-----------------------------------------------------------------------|
G|-666---------666---------666---------666-------------------------------|
D|-666-444-777-666-444-777-666-444-777-666-444---------------------------|
A|-444-444-777-444-444-777-444-444-777-444-444---------------------------|
E|-----222-555-----222-555-----222-555-----222---------------------------|
  I hate the one thing I need,I just dont trust you now, baby.
  All over the streets on the town.


e|---------------------------------|
B|---------------------------------|
G|---------------------------------|
D|-7----4----7----4----------------|
A|-7-x8-4-x8-7-x8-4-x8-------------|
E|-5----2----5----2----------------|
  I walk around.


e|--------------------------------------|
B|--------------------------------------|
G|--6----3------------------------6-----|
D|--7----4------------------------7-----|
A|--7-x8-4-x8---repeat-----end on-7-----|
E|--5----2------------------------5-----|
  In the odd time, any old time.
  Ophelia.
  Let your life be shallow.
  Ophelia.
  Let your life be hard.
  Ophelia.
  Let your life be shallow.
  Ophelia.
  Let your life be hard.
Tap to rate this tab
# A B C D E F G H I J K L M N O P Q R S T U V W X Y Z