Song name
# A B C D E F G H I J K L M N O P Q R S T U V W X Y Z

Ambulance Ltd - Focus chords

Highlighted       Show chord diagrams
------------------------------------------------------------------------------
			                         Focus (demo) - Ambulance LTD
------------------------------------------------------------------------------
Tabbed by: hinafu
Email: middle.ofthe.cabin@hotmail.com

Tuning: Standard e B G D A E

(I don't know about the lyrics, but I think the chords are right)


Bm D x2

Bm
All you have to do
     D
Make blue, and let me off your shoulders
Bm
Move me out the way
D 
  But just a little closer
Bm
All I have to say it's
            G
All you can stay if you want to
A
Leave if you want to
Em
Don't be surprised by
Bm           A
Look in her eyes when she goes
G           D
I, I always loved you

Bm D

Bm
Call ...
     D
I'm awake, it's only after-hours
Bm
...name
D
  I'm sending back the flowers
Bm
Grows upon your grave
            G
All you can stay if you want to
A
Leave if you want to
Em
Don't be surprised now
Bm           A
Everyone knows you're a lie
G           D
I, I always told you
(...)
G            D
I, I swear I told you

(Arpeggios) Bm D x2 

What did I told you?
What did I told you?

SOLO

e|-----------------------------------------------------5-7-7-5---10-10-9-9-|
B|-5s7-5---5-5s7-||-5h6h7p5---5s7-||-5-5h6h7p5---5h6h7---------7-----------|
G|-------7------------------7------------------7---------------------------|



e|-7-5----------------------|
B|----b6r-------------b6r---|
G|--------7-4-4h5h6h7-----7-|

(Background strumming Bm D Bm)

            G
All you can stay if you want to
A
Leave if you want to
Em
Don't be surprised now
Bm           A
Everyone knows you're a lie
G           D
  I, I always told you
(...)
G           D
  I, I always told you
(...)
G      D
(...)

End on D
Tap to rate this tab
 
# A B C D E F G H I J K L M N O P Q R S T U V W X Y Z