Song name
# A B C D E F G H I J K L M N O P Q R S T U V W X Y Z

Ambulance Ltd - Heavy Lifting tab

// Ambulance LTD - Heavy LIfting Chords/Tab
// Tabbed by TJ

Chords:
|-2----2----o----o----o----o----o----1-|
|-o----o----o----o----o----1----2----1-|
|-o----2----o----o----o----o----2----2-|
|-o----o----2----2----1----2----2----3-|
|-2----o----3----2----2----3----o----3-|
|-3----2----o----o----o----o----o----1-|
 G   D/F Cmaj7  em   e7   C    A    F(barred)


End Part:
|-5-------5/7--3-------|---o--3-------o--3--------o-|
|----o--------------o--|-----------o-----------o----|
|------o-----------o-o-|----------o-o--------o--o---|
|----------------------|-----------------2-2--------|
|--------------4-4-----|------3-3-------------------|
|-5--------------------|----------------------------|
REPEAT a couple of times      ^          ^
                              |          |
Then			      |          |
Play these randomly instead of|  and-----|
|--------------12-----------------2-|
|-----------------------------------|
|-----------------------------------|
|---------------------------------2-|
|-----------------------------------|
|--------------10-------------------|
Tap to rate this tab
# A B C D E F G H I J K L M N O P Q R S T U V W X Y Z