Song name
# A B C D E F G H I J K L M N O P Q R S T U V W X Y Z

Ambulance Ltd - Yoga Means Union tab

Help us improve GuitareTab! Take a short survey!
     SONG NAME - Band Name
-------------------------------------------------------------------------------
Tabbed by: Italian Stallion
Email:fa2c@hotmail.com

Tuning: STANDARD!

Here's an easier way to play the intro without having to break to tune the g
string down a half-step

Guitar 1
e|---------------------------------------------------------------------------------|
B|---------------------------------------------------------------------------------|
G|---------------------------------------------------------------------------------|
D|--4---5---7---5------------------------------------------------------------------|
A|----5---5---5---5----------------------------------------------------------------|
E|---------------------------------------------------------------------------------|

Guitar 2 [0:07]
e|---------------------------------------------------------------------------------|
B|---------------------------------------------------------------------------------|
G|---------------------------------------------------------------------------------|
D|--------4/5-4--------------------------------------------------------------------|
A|--6\5-7--------------------------------------------------------------------------|
E|---------------------------------------------------------------------------------|

Guitar 2 [0:40]
e|--------------------------------------------------------------------------------------|
B|--------------------------------------------------------------------------------------|
G|--5~~---4~~---2~~---------------------------------------------------------------------|
D|--------------------------------------------------------------------------------------|
A|--------------------------------------------------------------------------------------|
E|--------------------------------------------------------------------------------------|


| /  slide up
| \  slide down
| h  hammer-on
| p  pull-off
| ~  vibrato
| +  harmonic
| x  Mute note                                        Thanks! Enjoy!
===============================================================================
Related for Yoga Means Union tab