Song name
# A B C D E F G H I J K L M N O P Q R S T U V W X Y Z

Amebix - Coming Home tab

all clean

this is bren, i wrote the monolith part for nobodys driving.im gonna write the whole 
monolith pretty soon
-------------3--------------3--------------3------|
-----------3------3-------3------3-------3------3-|
---0h2---2--------------2--------------0----------|
-------0-------0----0-3-------3----3-2-------2----|
--------------------------------------------------|
--------------------------------------------------|

--------------------------3---------------3------|
-----------3------------3------3--------3------3-|
---------0-----0------2---------------2----------|
---2---2-----2----2-0-------0-----0-3-------3----|
-----3-------------------------------------------|
-------------------------------------------------|

-----------3-----------------------------------3-|
---------3------3----------------------------3---|
-------0-----------------0-----0-----0h2---2-----|
---3-2-------2-----2---2-----0-----------0-------|
---------------------3-----2------3--------------|
-------------------------------------------------|

----------------3---------------3-----------------|
------3-------3------3--------2------3----------3-|
------------2---------------0-----------------0---|
---0----0-3-------3-----3-2-------2-----2---2-----|
------------------------------------------3-------|
--------------------------------------------------|


-----------------3--------------3--------------3--|
---------------3------3-------3------3-------3----|
-----0-0h2---2--------------2--------------0------|
---2-------0-------0----0-3-------3----3-2--------|
--------------------------------------------------|
--------------------------------------------------|


--------------------------------------3~~~~~----|
------3-------------------------------3~~~~~----|
------------------0--------0----------2~~~~~----|
---2-----2-----2--------0--------0----0~~~~~----|
------------3--------2--------3-----------------|
------------------------------------------------|

gain

-------------------------------------------------------|
-------------------------------------------------------|
-7----10----9----5-5-5---5---5---5---------------------|
-7----10----9----5-5-5---5---5---5---------------------|like 5x
-5----8-----7----3-3-3-0-3-0-3-0-3---------------------|
-------------------------------------------------------|


--------------------------------|
--------------------------------|
--------------------------------|
--------------------------------|
-2-2-2-2-2-2-2-2-2-2------------|
-0-0-0-0-0-0-0-0-0-0------------|



repeat intro this time with this bassline

-------------------------|
-0--3--2----0------------| on keyboard its
---------3---------------| D F E C D
-------------------------|its played during 2nd time so

-------------------------------------------------------|
-------------------------------------------------------|
-7----10----9----5-5-5---5---5---5---------------------|
-7----10----9----5-5-5---5---5---5---------------------|
-5----8-----7----3-3-3-0-3-0-3-0-3---------------------|
-------------------------------------------------------|

--------------------------------|
--------------------------------|
--------------------------------|
--------------------------------|
-2-2-2-2-2-2-2-2-2-2------------|
-0-0-0-0-0-0-0-0-0-0------------|


---------0-------------0------------------|
-------1---1---------1---1----------------|
-----2--------2----0-------0--------------|
---2--------------------------------------|
----------------0-------------------------|
------------------------------------------|


-------0------------0-----------0--------------------|
-----1---1------------0---------0--------------------|
---2-------0------1-----1-------0--------------------|
-2--------------2---------------2--------------------|
--------------2-----------------2--------------------|
--------------------------------0--------------------|


--------------------------------------|
--------------------------------------|
----------------------5-4-2---5-4-7---|
----------------------5-4-2---5-4-7---|
-2-2-2-2-2-2-2-2-2-2--3-2-0---3-2-5---|
-0-0-0-0-0-0-0-0-0-0------------------|

-------------------------------------------------------|
-------------------------------------------------------|
-7----10----9----5-5-5---5---5---5---------------------|
-7----10----9----5-5-5---5---5---5---------------------|
-5----8-----7----3-3-3-0-3-0-3-0-3---------------------|
-------------------------------------------------------|
Tap to rate this tab
# A B C D E F G H I J K L M N O P Q R S T U V W X Y Z