Song name
# A B C D E F G H I J K L M N O P Q R S T U V W X Y Z

Amen - Mayday tab

5. MAYDAY
by amen

Tabbed by jon collins

tuning= DADGBE

/= slides

MAIN RIFF
E-----------------------------------|
B-----------------------------------|
G-----------------------------------|
D--5-5--7-7-7-7-7-7-7-7-7-7-7-7-7-7-|
A--3-3--5-5-5-5-5-5-5-5-5-5-5-5-5-5-|
D-----------------------------------| x8

E-----------------------------------|
B-----------------------------------|
G--5-5--7-7-7-7-7-7-7-7-7-7-7-7-7-7-|
D--5-5--7-7-7-7-7-7-7-7-7-7-7-7-7-7-|
A--3-3--5-5-5-5-5-5-5-5-5-5-5-5-5-5-|
D-----------------------------------| x8

VERSE
E-----------------------------|
B-----------------------------|
G-----------------------------|
D-----------------------------|
A--0-6-6-6-6-6--8--8-8--8-8-8-|
D--0-6-6-6-6-6--8--8-8--8-8-8-|

E----------------------------------|
B----------------------------------|
G----------------------------------|
D--7-7-7-7-7-7-7-7-7-7-7-7-7-7-7-7-|
A--5-5-5-5-5-5-5-5-5-5-5-5-5-5-5-5-|
D----------------------------------|

E-----------------------------------|
B-----------------------------------|
G-----------------------------------|
D-----------------------------------|
A--0-6-6-6-6-6--8--8-8--8-8-8--12/0-|
D--0-6-6-6-6-6--8--8-8--8-8-8--12/0-|

CHORUS
E---------------------------------------|
B---------------------------------------|
G---------------------------------------|
D-------------------------------5-5-5-5-|
A--0-0-0-0-0-0-0-0--1-1-1-1--0--3-3-3-3-|
D--0-0-0-0-0-0-0-0--1-1-1-1--0----------| x3

E---
B---
G---
D-3-
A-3-
D-3-

MAIN RIFF
E-----------------------------------|
B-----------------------------------|
G-----------------------------------|
D--5-5--7-7-7-7-7-7-7-7-7-7-7-7-7-7-|
A--3-3--5-5-5-5-5-5-5-5-5-5-5-5-5-5-|
D-----------------------------------|x12

VERSE
E-----------------------------|
B-----------------------------|
G-----------------------------|
D-----------------------------|
A--0-6-6-6-6-6--8--8-8--8-8-8-|
D--0-6-6-6-6-6--8--8-8--8-8-8-|

E----------------------------------|
B----------------------------------|
G----------------------------------|
D--7-7-7-7-7-7-7-7-7-7-7-7-7-7-7-7-|
A--5-5-5-5-5-5-5-5-5-5-5-5-5-5-5-5-|
D----------------------------------|

E-----------------------------------|
B-----------------------------------|
G-----------------------------------|
D-----------------------------------|
A--0-6-6-6-6-6--8--8-8--8-8-8--12/0-|
D--0-6-6-6-6-6--8--8-8--8-8-8--12/0-|

CHORUS
E---------------------------------------|
B---------------------------------------|
G---------------------------------------|
D-------------------------------5-5-5-5-|
A--0-0-0-0-0-0-0-0--1-1-1-1--0--3-3-3-3-|
D--0-0-0-0-0-0-0-0--1-1-1-1--0----------| x3

E----
B----
G----
D--3-
A--3-
D--3-

BREAK
E----------------------|
B----------------------|
G----------------------|
D----------7-7-7--5--7-|
A--0-------5-5-5--3--5-|
D--0-------------------| x4

BREAK
E----------------------------------|
B----------------------------------|
G----------------------------------|
D--7-7-7-7-7-7-7-7-7-7-7-7-7-7-7-7-|
A--5-5-5-5-5-5-5-5-5-5-5-5-5-5-5-5-|
D----------------------------------| x3

E----
B----
B----
D--0-
A--0-
D--0-

MIDDLE SECTION
E----------------------------------------------|
B----------------------------------------------|
G----------------------------------------------|
D--5--7--0-0--5--7--0-0--5--7--0-0--8--8--8--8-|
A--3--5--0-0--3--5--0-0--3--5--0-0--6--6--6--6-|
D----------------------------------------------|

E----------------------------------------------|
B----------------------------------------------|
G----------------------------------------------|
D-5--7--0-0--5--7--0-0--5--7--0-0--10-10-10-10-|
A-3--5--0-0--3--5--0-0--3--5--0-0--8--8--8--8--|
D----------------------------------------------|

E----------------------------------------------|
B----------------------------------------------|
G----------------------------------------------|
D--5--7--0-0--5--7--0-0--5--7--0-0--8--8--8--8-|
A--3--5--0-0--3--5--0-0--3--5--0-0--6--6--6--6-|
D----------------------------------------------|

E------------------------------------------------------|
B------------------------------------------------------|
G------------------------------------------------------|
D--5--7--0-0--5--7--0-0--10-10-10-10-10-10-10-10--12/0-|
A--3--5--0-0--3--5--0-0--8--8--8--8--8--8--8--8---12/0-|
D------------------------------------------------------|

CHORUS
E---------------------------------------|
B---------------------------------------|
G---------------------------------------|
D-------------------------------5-5-5-5-|
A--0-0-0-0-0-0-0-0--1-1-1-1--0--3-3-3-3-|
D--0-0-0-0-0-0-0-0--1-1-1-1--0----------|x6


OUTRO
E------------------------------|
B------------------------------|
G------------------------------|
D--0--3--0-0--5-5-5-5--0-0-0-0-|
A--0--3--0-0--5-5-5-5--0-0-0-0-|
D----------------------0-0-0-0-|
Tap to rate this tab
# A B C D E F G H I J K L M N O P Q R S T U V W X Y Z