Song name
# A B C D E F G H I J K L M N O P Q R S T U V W X Y Z

Amen - Te Quiero tab

Bueno Espero Que Les Guste es Mi primer Aporte :P
Ya Vere si le meto algnos \"Riff\"
Que Faltan Sacar Pero Vallan Analizandolos y Sacando (todo es posible) ^^!
Dedicado A la Unica :$ \"G_ _ _ _ _ \"
Dios Los Bendiga y Paz!!

Acordes Usados:
------------------------

   C      E      Am     C7     F     Fm      G      G#   A7
e|-0-| e|-0-| e|-0-| e|-0-| e|-1-| e|-1-| e|-3-| e|-4-| e|-0-|
B|-1-| B|-0-| B|-1-| B|-1-| B|-1-| B|-1-| B|-3-| B|-4-| B|-2-|
G|-0-| G|-1-| G|-2-| G|-3-| G|-2-| G|-1-| G|-0-| G|-5-| G|-0-|
D|-2-| D|-2-| D|-2-| D|-2-| D|-3-| D|-2-| D|-0-| D|-6-| D|-2-|
A|-3-| A|-2-| A|-0-| A|-3-| A|-3-| A|-2-| A|-2-| A|-6-| A|-0-|
E|-0-| E|-0-| E|-X-| E|-0-| E|-1-| E|-1-| E|-3-| E|-4-| E|-X-|
==============================================================

Riffs:
-----

Riff 1:                Riff 2:                     Riff 3:

e|--12--11--10-8---|  e|--3br~~4br~~5br~~6br~~-|  e|-------|
B|--12--11--10-8---|  B|--3br..4br..5br..6br..-|  B|-------|
G|-----------------|  G|--x----x----x----x-----|  G|-------|
D|-----------------|  D|-----------------------|  D|0h1-0h1| x5
A|-----------------|  A|-----------------------|  A|-------|
E|-----------------|  E|--3----4----5----6-----|  E|-------|

==============================================================
INTRO:

         C       E        Am         C7                     F          G
e|-----------------------------------------5----------------------10^~~8--|
B|--------------------------------8-7-6-7-8-8-7-6-7-8-6-5^~-------------8~|
G|---5-7^-7^-5---5-7^-7-5-4---4-5--------------------------7^~5br~~-------|
D|-6-----------6------------7---------------------------------------------|
A|------------------------------------------------------------------------|
E|------------------------------------------------------------------------|

   C                   E   Am                   C7
e|-12--12--12-14^(14)-----12~-15-12~-15-12-15-12-10-13-10--|
B|---13--13------------------------------------------------|
G|-------------------12/13---------------------------------|
D|---------------------------------------------------------|
A|---------------------------------------------------------|
E|---------------------------------------------------------|

    F                        Fm             G
e|--13----------13----13---------13----------------12—-11-—10--8|
B|----13------13--13----13-----13--13--------------12—-11—-10--8|
G|------14--14------14----14-13------13-12/13-12----------------|
D|--------15----------------------------------------------------|
A|--------------------------------------------------------------|
E|--------------------------------------------------------------|
================================================================

  C                  E
Cuando en las calles al caminar
 Am                 C7                    F
prendo un cigarro y me pongo a pensar en ti
 Fm            G - Riff 1
mmmm.. solo en ti...
 C                 E
Siento tu risa y al despertar
Am                     C7
solo me doy cuenta que no era verdad
 F    Fm                 G
nose, nose si pueda aguantar
   G
oh.. no..


CORO:
=====

       F              G#
Y es que tienes algo muy especial
    C                  A7
tienes un encanto que me va a matar
    F             G                    C-C7-C-C7
eres como una rosa, que no la puedo tocaaarr ohh no
       F                 G#               C  A7
y solo quiero decirte una vez mas que te quiero
        F          G                C-C7-C-C7
y ya no se que hacer, no me quiero pelar

======================================================

E                Am
Anduve por las calles
C                     G - Riff 2
en busca del amooooorrr
     F                    Fm - Riff 3
pero nunca te encontré ohh no
       G
yo nunca te encontré
           G
oh maldiciooooon.

SOLO:
=====
   C    E           Am     C7            F          G
e|---8----------------------------------------------------------------|
B|----8-9~------------------6~6~6~6~6~6~------------------------------|
G|-7^------------------------------------8~5-5-8^~--------------------|
D|---------10-10h12-10~~s6-----------------------10/121212-10/121212--|
A|--------------------------------------------------------------------|
E|--------------------------------------------------------------------|

    G
e|---------------------|
B|---------------------|
G|-10-9--10------------|
D|-----12--12-10-9-----|
A|----------------10~~-|
E|---------------------|

   C                E          A                  C7(en seco)  F
e|-------12-13-14^..--14^-12----------------------13^-12---------------|
B|-13-15--------------------13~~---13-13h15-13-15--------13----13-15---|.
G|------------------------------14--------------------------14---------|
D|---------------------------------------------------------------------|
A|---------------------------------------------------------------------|
E|---------------------------------------------------------------------|
                 G
e|-20-15-12/10-8-10~~~-12-11-10-8-|
B|---------------------12-11-10-8-|
G|--------------------------------|
D|--------------------------------|
A|--------------------------------|
E|--------------------------------|

=======================================================================
C              E
Cuando al fin te pude besar
       Am
senti que eras mi droga
       C7           F
y no puedo dejarte no
Fm                G
  no te puedo dejar de amar..

  C              E
Cuando te miro puedo soñar
     Am                  C7           F
con tocar el cielo y volar como superman....
           G
como supermaaaan.....

CORO:
=====

Y es que tienes algo muy especial
    C                  Am
tienes un encanto que me va a matar
      Dm            G                    C-C-C7-C7-C7
eres como una rosa, que no la puedo tocaaarr ohh no

       F                 G#               C  Am
y solo quiero decirte una vez mas que te quiero
       Dm          G                C-C-C7-C7-C7
y ya nose que hacer, no me quiero pelar

     F                 G#               C  Am
solo quiero decirte una vez mas que te quiero
       Dm          G                C-C-C7-C7-C7
y ya nose que hacer, no me quiero pelar
     F        G#
ya nose que hacer.....

SOLO Final:
----------

e|----------------------------------------------------------------|
b|--4-5-6-6b-6b-6b-3-------------------------7b-5-----------------|
g|-5----------------4---5-7b-7-6-5-7b--7-6-5-----5----------------|
D|--------------------/6----------7---------7-------7-5-----------|
A|-----------------------------------------------------7-5-3-h1h3-|
E|----------------------------------------------------------------|

(Tararartatataatarara turarararaaararuuru whaawahaaooooaoo xD)

Saludos y Gracias Amis Amigos

Cesar(Peluso)
Jesus(Chozón)
Joao(Peson Dotero)
Marcos(Chino)

Insitituto Allegro ^^!

Miguel Cutire Malasquez (Nyx-Gzuck)
Tap to rate this tab
# A B C D E F G H I J K L M N O P Q R S T U V W X Y Z