Song name
# A B C D E F G H I J K L M N O P Q R S T U V W X Y Z

Amen - Viejas Historias tab

<-Acordes Utilizados->
     Do#m : x35543
     Sol  : 320033
     Mim  : 022000
     Do   : 032010
     Si   : x24442
     RE   : x00232
     RE*  : x00233

 INTRO
 e|-----------------------------------------------------|
 B|-----------------------------------------------------|
 G|-2-2^v2^v--4-7-4-7^v7^v------------------------------|
 D|------------------------9~~--------------------------|
 A|-----------------------------------------------------|
 E|-----------------------------------------------------|

 e|-----------------------------------------------------|
 B|-///////---------------------------------------------|
 G|-//////-14v^-14-14v^--12~~-12-14-12------------------|
 D|-----------------------------------------------------|
 A|-----------------------------------------------------|
 E|-----------------------------------------------------|

 e|------------------------------------------------------|
 B|-15v--15v-15v^----------------------------------------|
 G|---------------14vv^^--12~----------------------------|
 D|------------------------------------------------------|
 A|------------------------------------------------------|
 E|------------------------------------------------------|

 G
 te acuerdas
 B
 cuando eramos niņos
 Em           C ...D    D*   D   D**  D
 y salimos ... al parque a caminar
 G
 la gente
 B
 no importaba
 Em
 solo saliamos
 C  ...D    D*   D   D**  D
 a buscar

 C  G
 un momnento, parta estar bien
 B  Em
 sin importar lo que venga despues
 C  G
 y recordar esas viejas historias
 A
 acerca de algun
 D   D*   D   D**   D
 nuevo amor


 en las buenas
 y en las malas
 siempre haciamos ...la mejor jugada
 teniendo en cuenta siempre siempre siempre la amistad
 para no perder esta sinceridad


 un momento parta estar bien
 sin importa lo que venga despues
 y recordar esas viejas
 de nuestras penas y
 nuestras glorias

 

 e|-----------------------------------------------------|
 B|-----------------------------------------------------|
 G|-2^2^2^v2^v--4-7-4-7^v7^v----------------------------|
 D|---------------------------9~~-----------------------|
 A|-----------------------------------------------------|
 E|-----------------------------------------------------|

 e|-----------------------------------------------------|
 B|-///////---------------------------------------------|
 G|-//////-14vV-14V-14V-14V-14v^--12~~-------12---------|
 D|------------------------------------12/14------------|
 A|-----------------------------------------------------|
 E|-----------------------------------------------------|

 e|-----------------------------------------------------|
 B|-15V-15V-15V^-15-15~~~-------------------------------|
 G|-----------------------12-14-12----------------------|
 D|-----------------------------------------------------|
 A|-----------------------------------------------------|
 E|-----------------------------------------------------|

 e|-----------------------------------------------------|
 B|-----------------------------------------------------|
 G|-14V-14v-14v-14v-14v-.....V-12-14-12-----------------|
 D|-----------------------------------------------------|
 A|-----------------------------------------------------|
 E|-----------------------------------------------------|

 e|---------15-15----------------------------------------|
 B|-15v-----------15^-12---------------------------------|
 G|----------------------14v-14v-14v-14v^ 12~~-----------|
 D|------------------------------------------------------|
 A|------------------------------------------------------|
 E|------------------------------------------------------|

 e|--15v-15v-15v^--12-----------------------------------|
 B|----------------------------------15v-15v-15v^-------|
 G|--------------------14v-14v^ 12~~--------------------|
 D|-----------------------------------------------------|
 A|-----------------------------------------------------|
 E|-----------------------------------------------------|

 e|--15--------------------------------------------------|
 B|--15--------------------------------------------------|
 G|------------------------------------------------------|
 D|------------------------------------------------------|
 A|------------------------------------------------------|
 E|------------------------------------------------------|

 e|-------------------------------------------8----------|
 B|-4-0-4-5--7-5h7p5--4-5.-8-7-8-7-8/10-10/12--1210-8~---|
 G|------------------------------------------------------|
 D|------------------------------------------------------|
 A|------------------------------------------------------|
 E|------------------------------------------------------|

 e|-----------------------------------------------------|
 B|--------5-7-8--.15v^---------------------------------|
 G|--5/7-----------------12~~--14v-14v^~~---------------|
 D|-----------------------------------------------------|
 A|-----------------------------------------------------|
 E|-----------------------------------------------------|


 el tiempo se fue volando
 y solo queda
 seguir luchando
 mira nada nada nada cambiara
 en mi memoria
 para mi siempre sera
 igual la historia


 un momento parta estar bien
 sin importar lo que venga despues
 y recordar esas viejas historias
 de nuestras penas y
 nuestras glorias (2x)

 OUTRO
 G - B - Em - C#m - G
Tap to rate this tab
# A B C D E F G H I J K L M N O P Q R S T U V W X Y Z