Song name
# A B C D E F G H I J K L M N O P Q R S T U V W X Y Z

Amen - Under The Robe tab

6. UNDER THE ROBE

tabbed by John Halfpenny (jhalfpenny@excite.com)

For intro, play the intro riff 3 times, then play the chorus riff twice

Intro & Main Riff

e --------------------------------------------------------------|
B --------------------------------------------------------------|
G --------------------------------------------------------------|
D --------------------------------------------------------------|
A --------------------------------------------------------------|
D 0---0---13--0---8---0---0---7---0---5---0---3---0---2---2---2-|

e ---------------------------------------------------------------|
B ---------------------------------------------------------------|
G ---------------------------------------------------------------|
D ---------------------------------------------------------------|
A ---------------------------------------------------------------|
D 0---0---13--0---8---0---0---7---0---5---0---12------12--12--12-|

Pre-Chorus
e --------------------------------------------------------------|
B --------------------------------------------------------------|
G --------------------------------------------------------------|
D 3---3---3---6---6---6---10--10--10--13--13--13--x---x---x---x-|
A 3---3---3---6---6---6---10--10--10--13--13--13--x---x---x---x-|
D 3---3---3---6---6---6---10--10--10--13--13--13--x---x---x---x-|

Chorus
e ----------------------------------------------------------------|
B ----------------------------------------------------------------|
G ----------------------------------------------------------------|
D 0---0---0---0-0-0---0---0---0-0-0---0---0---0-0-0---0---0---0-0-|
A 0---0---0---0-0-0---0---0---0-0-0---0---0---0-0-0---0---0---0-0-|
D 0---0---0---0-0-0---0---0---0-0-0---0---0---0-0-0---0---0---0-0-|

e --------------------------------------------------------------|
B --------------------------------------------------------------|
G 10--10--10--10--10--10--10--10--7---7---7---7---7---7---7---7-|
D 10--10--10--10--10--10--10--10--5---5---5---5---5---5---5---5-|
A 8---8---8---8---8---8---8---8---5---5---5---5---5---5---5---5-|
D 8---8---8---8---8---8---8---8---5---5---5---5---5---5---5---5-|

Bridge
e --------------------------------------------------------------|
B --------------------------------------------------------------|
G --------------------------------------------------------------|
D --------------------------------------------------------------|
A --------------------------------------------------------------|
D 0---0---3---0---2---0---0---1---0---0---3---0---2---0---1---0-| x4

e --------------------------------------------------------------|
B --------------------------------------------------------------|
G --------------------------------------------------------------|
D 0---0---3---0---2---0---0---1---0---0---3---0---2---0---1---0-|
A 0---0---3---0---2---0---0---1---0---0---3---0---2---0---1---0-|
D 0---0---3---0---2---0---0---1---0---0---3---0---2---0---1---0-| x3

e ------------------------------------------------------------|
B ------------------------------------------------------------|
G ------------------------------------------------------------|
D 0---0---3---0---2---0---0---1--->sl>12-bend up to 13 & back-|
A 0---0---3---0---2---0---0---1--->sl>12-bend-up to 13 & back-|
D 0---0---3---0---2---0---0---1--->sl>12-bend-up to 13 & back-|

Outro
e ----------------------------------------------------------------|
B ----------------------------------------------------------------|
G ----------------------------------------------------------------|
D 0---0---0---0-0-0---0---0---0-0-0---0---0---0-0-0---0---0---0-0-|
A 0---0---0---0-0-0---0---0---0-0-0---0---0---0-0-0---0---0---0-0-|
D 0---0---0---0-0-0---0---0---0-0-0---0---0---0-0-0---0---0---0-0-|

e ---------------------------------------------------------------|
B ---------------------------------------------------------------|
G --------------------------------10--10--10--10--10--10--10--10-|
D 5---5---5---5---5---5---5---5---10--10--10--10--10--10--10--10-|
A 5---5---5---5---5---5---5---5---8---8---8---8---8---8---8---8--|
D 5---5---5---5---5---5---5---5---8---8---8---8---8---8---8---8--|x3

e ----------------------------------------------------------------|
B ----------------------------------------------------------------|
G ----------------------------------------------------------------|
D 0---0---0---0-0-0---0---0---0-0-0---0---0---0-0-0---0---0---0-0-|
A 0---0---0---0-0-0---0---0---0-0-0---0---0---0-0-0---0---0---0-0-|
D 0---0---0---0-0-0---0---0---0-0-0---0---0---0-0-0---0---0---0-0-|

e ----------------------------------------------------------|
B ----------------------------------------------------------|
G ----------------------------------------------------------|
D 5---5-------5---5-------5---5-------5---5-------5-------5-|
A 5---5-------5---5-------5---5-------5---5-------5-------5-|
D 5---5-------5---5-------5---5-------5---5-------5-------5-|

e ----------------------------------------------------------|
B ----------------------------------------------------------|
G ----------------------------------------------------------|
D 8---8-------8---8-------8---8-------8---8-------8-------8-|
A 8---8-------8---8-------8---8-------8---8-------8-------8-|
D 8---8-------8---8-------8---8-------8---8-------8-------8-|

e --
B --
G --
D 0-
A 0-
D 0-
Tap to rate this tab
# A B C D E F G H I J K L M N O P Q R S T U V W X Y Z