Guitaretab - guitar tabs
Song name
# A B C D E F G H I J K L M N O P Q R S T U V W X Y Z
Home / A / Amen / Justified tab

Amen - Justified tab

3. justified

tabbed by jon collins

(sorry about the length)

notation

^= up stroke
"= down stroke
~= string bend
h= hammer on
/or=slide up or down

ALL GUITARS IN DROP D TUNING DADGBe

intro

E-0---0--0-----0-----------------0-/-0-0-0-0-0-0-0-0-0-0--|
B--14--14-14-14--14--14-14-14-14-15/-17171717171717171717-|
G-------------------------------------------~~~~~~~~~~~~~-|
D---------------------------------------------------------|
A---------------------------------------------------------|
D---------------------------------------------------------|

E------------------------------------------------------|
B------------------------------------------------------|
G------------------------------------------------------|
D-------------4-------------4-------------4---------4--|
A-0H10-0-----------------------------------------------|
D-0H10-0--2-0---2-0-2-0-2-0---2-0-2-0-2-0---2-0-2-0--0-|

E---------------------------------------------------------|
B---------------------------------------------------------|
G---------------------------------------------------------|
D-7777/9999------4-------------4-------------4---------4--|
A-5555/7777-----------------------------------------------|
D-^"^"^"^"^--2-0---2-0-2-0-2-0---2-0-2-0-2-0---2-0-2-0--0-|

E----------------------------------------------------|
B----------------------------------------------------|
G----------------------------------------------------|
D-7777/9999------------------------------------------|
A-5555/7777----xxxxx---xxxxx---xxxxx----------xxxxx--|
D-^"^"^"^"^--2-xxxxx-3-xxxxx-0-xxxxx-7--5/4/2-xxxxx--|etc until
                                        quiet
PRE-CHORUS
E-----------------|
B-----------------|
G-----------------|
D-----------------|
A-----2-3-2-3-5-0-|
D-7/--2-3-2-3-5-0-|

CHORUS

GUITAR 1
E--------------------------------------------|
B--------------------------------------------|
G--------------------------------------------|
D-----------------------5555555555-5555555---|
A-2222222222-0000000000-3333333333-3333333-0-|
D-2222222222-0000000000--------------------0-|

E------------------------------------|
B------------------------------------|
G------------------------------------|
D-----------------------555555-------|
A-2222222222-0000000000-333333-7~~~--|
D-2222222222-0000000000------------0-|

GUITAR 2
E------------------------------------------|
B------------------------------------------|
G------------------------------------------|
D-7-8--7-5-7-5--7-8--7-5-7-5--7-8--7-5-7-5-|
A------------------------------------------|
D------------------------------------------|

POST-CHORUS
E-------------|
B-------------|
G-------------|
D-------------|
A-2-3-2-3-5-0-|
D-2-3-2-3-5-0-|

VERSE
E------------------------------------------------------|
B------------------------------------------------------|
G------------------------------------------------------|
D-------------4-------------4-------------4---------4--|
A-0H10-0-----------------------------------------------|
D-0H10-0--2-0---2-0-2-0-2-0---2-0-2-0-2-0---2-0-2-0--0-|

E---------------------------------------------------------|
B---------------------------------------------------------|
G---------------------------------------------------------|
D-7777/9999------4-------------4-------------4---------4--|
A-5555/7777-----------------------------------------------|
D-^"^"^"^"^--2-0---2-0-2-0-2-0---2-0-2-0-2-0---2-0-2-0--0-|

E---------------------------------------------------|
B---------------------------------------------------|
G---------------------------------------------------|
D-7777/9999-----------------------------------------|
A-5555/7777----xxxxx---xxxxx---xxxxx----------xxxxx-|
D-^"^"^"^"^--2-xxxxx-3-xxxxx-0-xxxxx-7--5/4/2-xxxxx-|etc until
                                        audible
PRE-CHORUS
E-------------|
B-------------|
G-------------|
D-------------|
A-2-3-2-3-5-0-|
D-2-3-2-3-5-0-|

chorus

GUITAR 1
E--------------------------------------------|
B--------------------------------------------|
G--------------------------------------------|
D-----------------------5555555555-5555555---|
A-2222222222-0000000000-3333333333-3333333-0-|
D-2222222222-0000000000--------------------0-|

E---------------------------------------------|
B---------------------------------------------|
G---------------------------------------------|
D-----------------------555555----------------|
A-2222222222-0000000000-333333-7-7-77-77-77-0-|
D-2222222222-0000000000---------------------0-|

GUITAR 2
E------------------------------------------|
B------------------------------------------|
G------------------------------------------|
D-7-8--7-5-7-5--7-8--7-5-7-5--7-8--7-5-7-5-|
A------------------------------------------|
D------------------------------------------|

'get up and walk away' part

GUITAR 1
E------------------------------------------------|
B------------------------------------------------|
G------------------------------------------------|
D-----------------------555555-------------------|
A-2222222222-0000000000-333333-77-99-910-10-12-0-|
D-2222222222-0000000000------------------------0-|
[ Tab from: http://www.guitaretab.com/a/amen/35786.html ]
GUITAR 2
E------------------------------------------|
B------------------------------------------|
G------------------------------------------|
D-7-8--7-5-7-5--7-8--7-5-7-5--7-8--7-5-7-5-|
A------------------------------------------|
D------------------------------------------|

GUITAR 3
E-0-0---0---0-0---0---0-0---0---0--0----0--|
B-5---5-5---8---8-8---3---3-3---10---10-10-|
G------------------------------------------|
D------------------------------------------|
A------------------------------------------|
D------------------------------------------|

PRE-BREAK
E-------------------------------------------------|
B-------------------------------------------------|
G-------------------------------------------------|
D-------------------------------------------------|
A-2-3-2-3-5-0-2-3-2-3-5-0-2-3-2-3-5-0-2-3-2-3-5-0-|
D-2-3-2-3-5-0-2-3-2-3-5-0-2-3-2-3-5-0-2-3-2-3-5-0-|

E-------------------------------------------|
B-------------------------------------------|
G-------------------------------------------|
D-------------------------------------------|
A-2-0---222220----------2-0---222220---xxx9-|
D-2-0---222220----------2-0---222220---xxx9-|
                                       ^"^

E----------------------------------------------|
B----------------------------------------------|
G----------------------------------------------|
D----------------------------------------------|
A-2-0---222220------------2-0---222220---12---|
D-2-0---222220------------2-0---222220---12---|

E-------------------------------------------------|
B-------------------------------------------------|
G-------------------------------------------------|
D-----4------------------------4------------------|
A-----------22222-0------------------22222-0-xx---|x9
D-2-0---2-0-22222-0--------2-0---2-0-22222-0-xx---|x9
                                             ^"^
E--------------------------|
B--------------------------|
G--------------------------|
D-----4--------------------|
A-----------22222-0--------|
D-2-0---2-0-22222-0---12/0-|

E-------------------------------------------------------|
B-------------------------------------------------------|
G-------------------------------------------------------|
D-----4-------------4-------------4-------------4-------|
A-----------------------------------------------------X-|
D-2-0---2-0-----2-0---2-0-----2-0---2-0-----2-0---2-0-X-|

chorus

GUITAR 1
E--------------------------------------------|
B--------------------------------------------|
G--------------------------------------------|
D-----------------------5555555555-5555555---|
A-2222222222-0000000000-3333333333-3333333-0-|
D-2222222222-0000000000--------------------0-|

E---------------------------------------------|
B---------------------------------------------|
G---------------------------------------------|
D-----------------------555555----------------|
A-2222222222-0000000000-333333-7-7-77-77-77-0-|
D-2222222222-0000000000---------------------0-|

GUITAR 2
E------------------------------------------|
B------------------------------------------|
G------------------------------------------|
D-7-8--7-5-7-5--7-8--7-5-7-5--7-8--7-5-7-5-|
A------------------------------------------|
D------------------------------------------|

GUITAR 1
E------------------------------------------------|
B------------------------------------------------|
G------------------------------------------------|
D-----------------------555555-------------------|
A-2222222222-0000000000-333333-77-99-910-10-12-0-|
D-2222222222-0000000000------------------------0-|

GUITAR 2
E------------------------------------------|
B------------------------------------------|
G------------------------------------------|
D-7-8--7-5-7-5--7-8--7-5-7-5--7-8--7-5-7-5-|
A------------------------------------------|
D------------------------------------------|

GUITAR 3
E-0-0---0---0-0---0---0-0---0---0--0----0--|
B-5---5-5---8---8-8---3---3-3---10---10-10-|
G------------------------------------------|
D------------------------------------------|
A------------------------------------------|
D------------------------------------------|

post chorus variation

guitar 1
E-------------|
B-------------|
G-------------|
D-------------|
A-2-3-2-3-5-0-| a few times
D-2-3-2-3-5-0-|

guitar 2
E-0-0-0-0-0--0-0-0-0-0-|
B-5-5-5-5-5--5-5-5-5-5-|
G------------~-~-~-~-~-|
D----------------------|
A----------------------|
D----------------------|

outro part 1

E----------------------------------------------|
B----------------------------------------------|
G----------------------------------------------|
D-----4--------------4--------------4----------|
A----------------------------------------------|
D-2-0---2-0--2-0-2-0---2-0--2-0-2-0---2-0--2-0-|

outro part 2

E-----------------------------------------------------|
B-----------------------------------------------------|
G-----------------------------------------------------|
D-----------------------------------------------------|
A-2-3-2-3-5-0--2-3-2-3-5-0--2-3-2-3-5-0--2-3-2-#%"^%-| feedback!
D-2-3-2-3-5-0--2-3-2-3-5-0--2-3-2-3-5-0--2-3-2-~^&(*%-|

please rate!
i need the feeling of happiness :(
Related for Justified tab