Song name
# A B C D E F G H I J K L M N O P Q R S T U V W X Y Z

Amen - Price Of Reality tab

The Price Of Reality
A M E N
Tabbed By Aaron Bridgeman (rokken@sicness.net)

http://bogans.arecool.net

Dropped D Tuning (D A D G B e)

KEY:
pm. = palm muting
p   = pull off

Begins with feedback

INTRO LEAD:
e|----|
B|-10-| Played in verses also. Effected, and I think it's a phaser
G|-12-|  but I'm not sure.
D|----|
A|----|
D|----|

INTRO FILL:
e|-----------|
B|-----------|
G|-----------|
D|-----------|
A|-0-1p0-1p0-|
D|-0-1p0-1p0-|

VERSE IS BASS AND INTRO LEAD
BASS *MAY* GO LIKE THIS:
G|-----------------------------------------------------------------|
D|-----------------------------------------------------------------|
A|-----------------------------------------------------------------|
D|-3-3-3-3-3-3-3-3-1-1-1-1-1-1-1-1-0-0-0-0-0-0-0-0-0-0-0-0-0-0-0-0-|

PRE-CHORUS:
e|-----------------------------------------------------------------|
B|-----------------------------------------------------------------|
G|-----------------------------------------------------------------|
D|-----------------------------------------------------------------|
A|-0-0-0-0-0-0-0-0-3-3-3-3-3-3-3-3-5-5-5-5-5-5-5-5-1-1-1-1-1-1-1-1-|
D|-0-0-0-0-0-0-0-0-3-3-3-3-3-3-3-3-5-5-5-5-5-5-5-5-1-1-1-1-1-1-1-1-|
pm . . . . . . . . . . . . . . . . . . . . . . . . . . . . . . . .

PRE-CHORUS ENDS IN PICK SCRAPES

CHORUS
e|-----------------------------------------------------------------|
B|-----------------------------------------------------------------|
G|-----------------------------------------------------------------|
D|-0-0-0-0-0-0-0-0-3-3-3-3-3-3-3-3-5-5-5-5-5-5-5-5-1-1-1-1-1-1-1-1-|
A|-0-0-0-0-0-0-0-0-3-3-3-3-3-3-3-3-5-5-5-5-5-5-5-5-1-1-1-1-1-1-1-1-|
D|-0-0-0-0-0-0-0-0-3-3-3-3-3-3-3-3-5-5-5-5-5-5-5-5-1-1-1-1-1-1-1-1-|

OUTRO:
e|-------------------------------|
B|-------------------------------|
G|-------------------------------|
D|-------------------------------|
A|-1p0-0-0-0-0-3--1p0-0-0-0-0-3--|
D|-1p0-0-0-0-0-3--1p0-0-0-0-0-3--|
pm     . . . .        . . . .

That'd probably be it. Rokken song.
Tap to rate this tab
# A B C D E F G H I J K L M N O P Q R S T U V W X Y Z