Song name
# A B C D E F G H I J K L M N O P Q R S T U V W X Y Z

Amen - Money Infection tab

Money infection
by amen

tabbed by cincit

Tuning- Drop D= D A D G B C#

INTRO
~~~~~
C--------------------------------------------------|
B--------------------------------------------------|
G--------------------------------------------------|
D--------------------------------------------------|
A---------------------2222-1111-4444-3333----------|
D-2222-1111-4444-3333-2222-1111-4444-3333----------|


C--------------------------------------------------|
B--------------------------------------------------| don't strike the
G--------------------------------------------------| 8's, just slide
D--------------------------------------------------| to them and then
A-2222-1111-6/8-6/8-6/8-6/8-2222-1111-4444-2^------| slide to the 6's
D-2222-1111-6/8-6/8-6/8-6/8-2222-1111-4444-2^------| and strike them

verse (not sure)
~~~~~~~~~~~~~~~

just the lead (i'll figure out the background bit later, but it's hard for me)
C---------------------------------------------------------|
B---------------------------------------------------------|
G---------------------------------------------------------|
D---------------------------------------------------------|
A------------------------2222------------------------2222-|
D-0024-02424444-0242-0242-----0024-02424444-0242-0242-----|

chorus (not sure either but it's roughly alright)
~~~~~~~~~~~~~~~~~~~~~~~~

C--------------------------------------------------|
B--------------------------------------------------|
G--------------------------------------------------|
D--------------------------------------------------|
A-33333333-4444-3333-33333333-5555-7777------------|
D-11111111-4444-3333-11111111-3333-5555------------|

break part with the scream of 'i...got your witness'
~~~~~~~~~~~~~~~~~~~~~~~~~~~~~~~~~~~~~~~~~~~~~~~~~~~~~~~~~~~

C--------------------------------------------------|
B--------------------------------------------------|
G--------------------------------------------------|
D--------------------------------------------------|
A-2-55-2-5-555-2-55-2-5-7^-------------------------|
D-0-33-0-3-333-0-33-0-3-5^-------------------------|

VERSE still not sure
~~~~~~~~~~~~~~~~~~~~

C---------------------------------------------------------|
B---------------------------------------------------------|
G---------------------------------------------------------|
D---------------------------------------------------------|
A------------------------2222------------------------2222-|
D-0024-02424444-0242-0242-----0024-02424444-0242-0242-----|

chorus
~~~~~~

C--------------------------------------------------|
B--------------------------------------------------|
G--------------------------------------------------|
D--------------------------------------------------|
A-33333333-4444-3333-33333333-5555-7777------------|
D-11111111-4444-3333-11111111-3333-5555------------|

random bit (the bit with 'were all infected, money infection!)
~~~~~~~~~~~~~~~~~~~~~~~~~~~~~~~~~~~~~~~~~~~~~~~~~~~~~~~~~~~~~~

to be looked into

break again (theres a lead i can't figure out in the gaps)
~~~~~~~~~~~~~~~~~~~~~~~~~~~~~~~~~~~~~~~~~~~~~~~~~~~~~~~~~~

C------------------------------------------------------------|at the end when needed,
B--------------------------------------------------play a -7-| and slide
G--------------------------------------------------       -7-|
D------------------------------------------------------------|down to play the next
A-2-55-2-5-555-2-55-2-5-7^-----------------------------------|bar
D-0-33-0-3-333-0-33-0-3-5^-----------------------------------|

'join the navy...' bit
~~~~~~~~~~~~~~~~~~~~~~

C--------------------------------------------------|
B--------------------------------------------------|
G--------------------------------------------------|
D---------------------------------------4~~~~------|
A-2222-1111-6/8-6/8-6/8-6/8-2222-1111--------------|
D-2222-1111-6/8-6/8-6/8-6/8-2222-1111--------------|

chorus
~~~~~~

C--------------------------------------------------|
B--------------------------------------------------|
G--------------------------------------------------|
D--------------------------------------------------|
A-33333333-4444-3333-33333333-5555-7777------------|
D-11111111-4444-3333-11111111-3333-5555------------|

outro somes right, somes not...
~~~~~~~~~~~~~~~~~~~~~~~~~~~~~~~


C--------------------------------------------------------------------|
B--------------------------------------------------------------------|
G--------------------------------------------------------------------|
D--------------------------------------------------------------------|
A-55555555-7777-9999-55555555-7777-3333-33333345-33333335 3333333453-|
D-33333333-5555-7777-33333333-5555-1111-33333345-33333335-3333333453-|


PLEASE, correct everything thats wrong and tell me... or make your own tab...
Tap to rate this tab
# A B C D E F G H I J K L M N O P Q R S T U V W X Y Z