Song name
# A B C D E F G H I J K L M N O P Q R S T U V W X Y Z

Amen - Waiting 18 tab

intro
e|---------------------------------------------------------------------------|
B|---------------------------------------------------------------------------|
G|---------------------------------------------------------------------------|
D|---------------------------------------------------------------------------|
A|---2-3---------------------------------------------------------------------|
E|---------------------------------------------------------------------------|

verse (muted with accents)
e|---------------------------------------------------------------------------|
B|---------------------------------------------------------------------------|
G|---------------------------------------------------------------------------|
D|---------5-5-5-3-3-4-5-----------------------------------------------------|
A|---------5-5-5-3-3-4-5-----------------------------------------------------|
E|--1-1-2--3-3-3-1-1-2-3-----------------------------------------------------|

chorus
e|---------------------------------------------------------------------------|
B|---------------------------------------------------------------------------|
G|---------------------------------------------------------------------------|
D|--5---8---11---------------------------------------------------------------|
A|--5---8---11---------------------------------------------------------------|
E|--3---6---9----------------------------------------------------------------|

"we can make the bombs..."

the part at the end when he goes "don't do what you want, 18, don't do what you want..."
the guitar part that goes with the chorus part is:
e|---------------------------------------------------------------------------|
B|---------------------------------------------------------------------------|
G|---------------------------------------------------------------------------|
D|---------------------------------------------------------------------------|
A|---5--3--7--5--------------------------------------------------------------|
E|---------------------------------------------------------------------------|


there ya go
Tap to rate this tab
# A B C D E F G H I J K L M N O P Q R S T U V W X Y Z