Song name
# A B C D E F G H I J K L M N O P Q R S T U V W X Y Z

Amen - Daycare Tourniquet tab

Song: Daycare Tourniquet
Album: DEATH BEFORE MUSICk (Japanese Version)
Written by: Casey Choas
Tabbed by BRAINDEAD
Tuning: Drop D [D,A,D,G,b,e]


e|--------|
b|--------|
G|--------|
D|--5-7---|repeated a few times
A|--------|
D|--------|

INTRO:
e|--------------------------------------------------|
b|--------------------------------------------------|
G|--------------------------------------------------|
D|-2202-02202-02202-02203-02202-02202-05555-03333---|
A|-2202-02202-02202-02203-02202-02202-05555-03333---|
D|-2202-02202-02202-02203-02202-02202-05555-03333---|


VERSE:
e|-------------------------------------------------------------------|
b|---------------------------------------------------------7-bend-up-|
G|-0--------------0----------0--------0-----------0------------------|
D|--202-023202-02--202-023202-20-(x3)--202-023202--02--202-----------|
A|-------------------------------------------------------------------|
D|-------------------------------------------------------------------|

cHORUS:
e|--------------------------------------------------|
b|--------------------------------------------------|
G|--------------------------------------------------|
D|-2202-02203-02202-02203-02202-02203-02202-02203---|
A|-2202-02203-02202-02203-02202-02203-02202-02203---|
D|-2202-02203-02202-02203-02202-02203-02202-02203---|

CONT..
e|-------------------------------------------------|
b|-------------------------------------------------|
G|-------------------------------------------------|
D|--55555555-77777777-3333333333333330-------------|
A|--55555555-77777777-3333333333333330--(x2)-------|
D|--55555555-77777777-3333333333333330-------------|

INTRO:
e|--------------------------------------------------|
b|--------------------------------------------------|
G|--------------------------------------------------|
D|-2202-02202-02202-02203-02202-02202-05555-03333---|
A|-2202-02202-02202-02203-02202-02202-05555-03333---|
D|-2202-02202-02202-02203-02202-02202-05555-03333---|

2ND VERSE:
e|--------------------------------------------------------------------|
b|----------------------------------------------------------7-bend-up-|
G|-0---------------0----------0--------0-----------0------------------|
D|--202-023202-02---202-023202-20-(x1)--202-023202--02--202-----------|
A|--------------------------------------------------------------------|
D|--------------------------------------------------------------------|

cHORUS:
e|--------------------------------------------------|
b|--------------------------------------------------|
G|--------------------------------------------------|
D|-2202-02203-02202-02203-02202-02203-02202-02203---|
A|-2202-02203-02202-02203-02202-02203-02202-02203---|
D|-2202-02203-02202-02203-02202-02203-02202-02203---|

CONT..
e|-------------------------------------------------|
b|-------------------------------------------------|
G|-------------------------------------------------|
D|--55555555-77777777-3333333333333330-------------|
A|--55555555-77777777-3333333333333330--(x2)-------|
D|--55555555-77777777-3333333333333330-------------|

BRIDGE:
e|--------------------------------------|
b|--------------------------------------|
G|----0-------0-------0---0---0---0-----|
D|--02-202--02-202--02-202-202-202-202--|
A|--------------------------------------|
D|--------------------------------------|

BRIDGE: guitar 2
e|-------------------|
b|-------------------|
G|-------------------|
D|----5--7--3--------|
A|----5--7--3--(x2)--|
D|----5--7--3--------|

INTRO:
e|--------------------------------------------------|
b|--------------------------------------------------|
G|--------------------------------------------------|
D|-2202-02202-02202-02203-02202-02202-05555-03333---|
A|-2202-02202-02202-02203-02202-02202-05555-03333---|
D|-2202-02202-02202-02203-02202-02202-05555-03333---|

OUTRO:
e|---------------------------------------|
b|---------------------------------------|
G|-------------------------(END ON)------|
D|--2222-3333-5555-7777--------2---------|
A|--2222-3333-5555-7777--(X8)--2---------|
D|--2222-3333-5555-7777--------2---------|
Tap to rate this tab
 
# A B C D E F G H I J K L M N O P Q R S T U V W X Y Z