Song name
# A B C D E F G H I J K L M N O P Q R S T U V W X Y Z

Amen - Summer Of Guns tab

15.summer of guns

Tabbed by Robin West (RobermaK@hotmail.com)

DROP D TUNING- DADGBE

Key;
* = Use where appropriate( I'm too lazy to figure it all out so you can)
| = On last time

Intro
E-------------------------------------------|
B-------------------------------------------|
G-------------------------------------------|
D----------0-2-0----------------------------|
A------0-----------0-1-----*5--*0-*1-*5-----|
D--0------------------------------*1----*3--|X 12

Pre-VERSE
E-----------------------------|
B-----------------------------|
G-----------------------------|
D-----------------------------|
A-----------------------------|
D--PICK SCRAPES!!!! - %*~#!X--

VERSE
E-----------------------------------------------|
B-----------------------------------------------|
G-----------------------------------------------|
D--000000000000000000000000----3-3-3---10-10-10-|
A--000000000000000000000000----3-3-3---10-10-10-|
D--000000000000000000000000----3-3-3---10-10-10-|X 2

Pre-Chorus
E--------------------------------------------|
B--------------------------------------------|
G--------------------------------------------|
D--0-0-0----3-3-3-3-3----5-5-5----1-1-1-1-1--|
A--0-0-0----3-3-3-3-3----5-5-5----1-1-1-1-1--|
D--0-0-0----3-3-3-3-3----5-5-5----1-1-1-1-1--|X 4

Chorus
E------------------------------------|--------|
B------------------------------------|--------|
G------------------------------------|--------|
D----7-7-5-7------0-5-0-6-0-3-3------|--------|
A----5-5-3-5------0-5-0-6-0-3-3------|--------|
D-----------------0-5-0-6-0-3-3------|--12/1--|X  4

E-------------------------------------------|
B-------------------------------------------|
G-------------------------------------------|
D--0-0-0-0-0-0-0-0--3-3-3-3--10-10-10-12----|
A--0-0-0-0-0-0-0-0--3-3-3-3--10-10-10-12----|
D--0-0-0-0-0-0-0-0--3-3-3-3--10-10-10-12----|X 5

Pre-Chorus
E---------------------------------------------|--------|
B---------------------------------------------|--------|
G---------------------------------------------|--------|
D--0-0-0----3-3-3-3-3----5-5-5----1-1-1-1-1---|--------|
A--0-0-0----3-3-3-3-3----5-5-5----1-1-1-1-1---|--------|
D--0-0-0----3-3-3-3-3----5-5-5----1-1-1-1-1---|--12/1--|X 4

Chorus
E--------------------------------------|--------|
B--------------------------------------|--------|
G--------------------------------------|--------|
D---7-7-5-7/5--------0-5-0-6-0-3-3-----|--------|
A---5-5-3-5/5--------0-5-0-6-0-3-3-----|--------|
D----------/5--------0-5-0-6-0-3-3-----|--12/1--|X  4

Intro
E----------------------------------------------|
B----------------------------------------------|
G----------------------------------------------|
D-----------0-2-0------------------------------|
A-------0-----------0-1------*5--*0-*1-*5------|
D---0-------------------------------*1----*3---|X 8 (?)

Alternative verse
E----------------------------------------------------------|
B----------------------------------------------------------|
G----------------------------------------------------------|
D--0-0-0-0-0-0-0-0--3-3-3-3-3-3-3-3---7-7-7-7--12-12-10-10-|
A--0-0-0-0-0-0-0-0--3-3-3-3-3-3-3-3---7-7-7-7--12-12-10-10-|
D--0-0-0-0-0-0-0-0--3-3-3-3-3-3-3-3---7-7-7-7--12-12-10-10-|X 2

Pre-Chorus
E-------------------------------------------|-------|
B-------------------------------------------|-------|
G-------------------------------------------|-------|
D-0-0-0----3-3-3-3-3----5-5-5----1-1-1-1-1--|-------|
A-0-0-0----3-3-3-3-3----5-5-5----1-1-1-1-1--|-------|
D-0-0-0----3-3-3-3-3----5-5-5----1-1-1-1-1--|-12/1--|X 4

Chorus
E--------------------------------|-------|
B--------------------------------|-------|
G--------------------------------|-------|
D--7-7-5-7-----0-5-0-6-0-3-3-----|-------|
A--5-5-3-5-----0-5-0-6-0-3-3-----|-------|
D--------------0-5-0-6-0-3-3-----|--12/1-|X  6

Outro
E---------------------------------------|
B---------------------------------------|
G---------------------------------------|
D-7-7-5-7---5-5-5-5----5-5-5-5--7-7-5-7-|
A-5-5-3-5---5-5-5-5----5-5-5-5--5-5-3-5-|
D-----------5-5-5-5----5-5-5-5----------|X 1
Tap to rate this tab
# A B C D E F G H I J K L M N O P Q R S T U V W X Y Z