Song name
# A B C D E F G H I J K L M N O P Q R S T U V W X Y Z

America - The Star Spangled Banner tab

----------------------------
  The Star Spangled Banner
----------------------------
Tabbed by: dreese
Tuning: Standard
Info: I taught myself this version myself and it sounds good with distortion.
I hope you enjoy my first tab!

Key:
/ - Slide up
\ - Slide down

e|----------------------------------|----------------------------------|
B|----------------------------------|----9----7------------------------|
G|-----------------------------9----|--------------9-------------------|
D|----9----6---------6----9----9----|-------------------6----8----9----|
A|--------------7-------------------|-----------------------------9----|
E|----------------------------------|----------------------------------|

e|----------------------------------|---------------------------------------|
B|--------------9----7--------------|---------------------------------------|
G|------------------------9----8----|----6----8----9----9-------------------|
D|----9----9-------------------8----|------------------------9----6----9----|
A|----------------------------------|----------------------------------7----|
E|----------------------------------|---------------------------------------|

e|----------------------------------|----------------------------------|
B|----------------------------------|----9----7------------------------|
G|-----------------------------9----|--------------9-------------------|
D|----9----6---------6----9----9----|-------------------6----8----9----|
A|--------------7-------------------|-----------------------------9----|
E|----------------------------------|----------------------------------|

e|----------------------------------|---------------------------------------|
B|--------------9----7--------------|---------------------------------------|
G|------------------------9----8----|----6----8----9----9-------------------|
D|----9----9-------------------8----|------------------------9----6----9----|
A|----------------------------------|----------------------------------7----|
E|----------------------------------|---------------------------------------|

e|-------------------------------14----|--------------------------------|
B|----9----9----9----10----12----12----|----10----9----7----9-----10----|
G|-------------------------------------|--------------------------------|
D|-------------------------------------|--------------------------------|
A|-------------------------------------|--------------------------------|
E|-------------------------------------|--------------------------------|

e|----12----12-------------------6----|----------------------------------|
B|----10----10----9----7----5----4----|----2----4----5-------------------|
G|------------------------------------|----------------------------------|
D|------------------------------------|-------------------6----8----9----|
A|------------------------------------|-----------------------------9----|
E|------------------------------------|----------------------------------|

e|----------------------------------------------|
B|----------------------------------------------|
G|--------------9----9----9\8----6----6----6----|
D|----9----9------------------------------------|
A|----------------------------------------------|
E|----------------------------------------------|

e|-----------------------------------------------------|
B|-----------------------------------------------------|
G|----11----14----13----11----9----9----9/11\9----8----|
D|-----------------------------------------------------|
A|-----------------------------------------------------|
E|-----------------------------------------------------|

e|-------------------------------------------------|
B|-------------------------------------------17----|
G|--------------9----11----13----14----16----------|
D|----9----9---------------------------------------|
A|-------------------------------------------------|
E|-------------------------------------------------|

e|--------------------------------------|
B|---------------------------------9----|
G|----9----11----13----14----11----9----|
D|---------------------------------9----|
A|--------------------------------------|
E|--------------------------------------|
Tap to rate this tab
 
# A B C D E F G H I J K L M N O P Q R S T U V W X Y Z