Song name
# A B C D E F G H I J K L M N O P Q R S T U V W X Y Z

America - Star Spangled Banner tab

Song: Star Spangled Banner

Original Tab by: Old Greg

Rewritten by: Kevin Beeker

Tuning: Standard


e|---------------------------------------------------------|
B|---------------3-1-------------/3--1---------------------|
G|-----------3------3------------------3-2--0-2-3-3--------|
D|--3-0--0-3----------0-2-3--3-3--------------------3-0----|
A|-----1------------------------------------------------1--|
E|---------------------------------------------------------|

e|---------------------------------------------------------|
B|---------------3-1-------------/3--1---------------------|
G|-----------3------3------------------3-2--0-2-3-3--------|
D|--3-0--0-3----------0-2-3--3-3--------------------3-0----|
A|-----1------------------------------------------------1--|
E|---------------------------------------------------------|

e|-------------1--1-----------------------------------------------|
B|--3--3-3--4---------4--3-1--3--4-4--4-3--1----------------------|
G|-------------------------------------------3--2-0---2-3---------|
D|---------------------------------------------------------0-2-3--|
A|----------------------------------------------------------------|
E|----------------------------------------------------------------|

e|------------------------------------------|
B|-------------------------1--4-3-1---------|
G|----------------------------------3-3--2--|
D|-----3--3-3-3--2-0--0--0------------------|
A|--3---------------------------------------|
E|------------------------------------------|

e|----------------1--------------------|
B|----------1-3-4-------1-3---4-1------|
G|------3-------------3------------3~--|
D|--3-3--------------------------------|
A|-------------------------------------|
E|-------------------------------------|


------------------
| /  slide up
| \  slide down
------------------

Tap to rate this tab
 
# A B C D E F G H I J K L M N O P Q R S T U V W X Y Z