Song name
# A B C D E F G H I J K L M N O P Q R S T U V W X Y Z

America - Star Spangled Banner tab

This is my first tab ever with the super rookie in mind.
It's a fun song to play especially on a distorted guitar and it`s good practice for 
warming up your fingers.
I added the Fingerset in the first row. There is no focus on the timing though. But it 
is very easy to figure out when you play along.


(I) Indexfinger
(M) Middlefinger
(R) Ringfinger
(P) Pinkie



Additional Tipps:
on the 3rd fret notes on 2 different Strings just roll your finger down. Also works with 
rolling up but its a little harder and you will have to think ahead.

If the B-Chord in the ending is too hard dont worry and play a single B note (3rd Fret 
on the G-String), a B5-Chord or whatever.


Here we go:


 |--R-----I-----R--R----I--R--I-----M--R----R--R--P--I--R--M-------M--R--M*-----I--

E|-----------------------------------------------------------------------------------|
B|----------------------3-------------------------3--1-------------------------------|
G|-----------------3-------5--3-------------------------3--2----0--2--3--3-----------|
D|--3--0-----0--3----------------0--2--3----3--3----------------------------3--0-----|
A|--------1-----------------------------------------------------------------------1--|
E|-----------------------------------------------------------------------------------|
    Oh   Say...
    Whose broad..

(Repeat once)

* or roll your ringfinger up




 |--I--I--I--M--P--P----M--I--R--I--M--M----M--I--R--I--I-------M--R-----M--R--

E|-----------------------------------------------------------------------------|
B|--3--3--3--4--6--6----4--3-----3--4--4----4--3-------------------------------|
G|----------------------------5-------------------5--3--2----0--2--3-----------|
D|--------------------------------------------------------------------0--2--3--|
A|-----------------------------------------------------------------------------|
E|-----------------------------------------------------------------------------|

    And the rocket's..




 |--R--R--R--R--R--M----------------R--M--I--R--I--I--I--

E|-------------------------------------------------------|
B|-------------------------------------4--3--------------|
G|-----3--3--3--3--2--0--0----0----\5--------5--3--3-\2--|
D|--3----------------------------------------------------|
A|-------------------------------------------------------|
E|-------------------------------------------------------|

    Oh say..




 |--I--I--I--R--I--M--P------I--R--I--M--R------------I(MRP)

E|-------------------------------------------------------|
B|--------------3--4--6------------3--4--------------(3)-|
G|--------3--5---------------3--5--------5------------3--|
D|--3--3---------------------------------------------(3)-|
A|---------------------------------------------------(1)-|
E|-------------------------------------------------------|

   O'er the land..


have fun playing!

your fellow German
badsn
Tap to rate this tab
 
# A B C D E F G H I J K L M N O P Q R S T U V W X Y Z