Song name
# A B C D E F G H I J K L M N O P Q R S T U V W X Y Z

American Authors - Believer tab

This is my first tab but I'm pretty confident in it. This is a great band so share 
them to the world. They deserve to be famous!





--------------
|INTRO.. 0:04|
--------------

This is the little intro riff (guitar tabbed). It's the best mimic you can do 
based off of a mandolin.

E|--------------------------------------------------------------------7--7--7--7--7--5--5--5--|
B|--------------5----7--------------------------------------5----7----------------------------|
G|--7--7--7--7------------7--7--7--7-------6----7--7--7--7------------------------------------| x2
D|------------------------------------7-------------------------------------------------------|
A|--------------------------------------------------------------------------------------------|
E|--------------------------------------------------------------------------------------------|

----------------
|VERSE 1.. 0:20|
----------------

D
I'm a little bit sheltered

A
I'm a little bit scared

D
I'm a little bit nervous

G
I'm goin' nowhere

D
I'm a little bit jealous

A
I'm a little bit slow

D
I'm a little bit hurtful

G
and I don't wanna let it go

D            A

D
Noooo

G
And I don't wanna let it go

----------------
|VERSE 2.. 0:47|
----------------

D
I'm a little bit angry

A
When everyone's around

D
But I get a little lonely

G
When no one's out

D         G         Bm      A 
I feel my demons misleading me

---------------
|CHORUS.. 1:00|
---------------

D                    A
I'm just a believer, that things will get better

D
Some can take it or leave it

G
But I don't wanna let it go

D                    A
I'm just a believer, that things will get better

D
Some can take it or leave it

G
But I don't wanna let it go
----------------
|VERSE 3.. 1:16|
----------------

D
Maybe when I get older

A
And I'm in the ground

D
Weight off my shoulders

G
It was bringin' me down

D
I've never been that lucky

A
I've never tasted fame

D
I was always lookin' for somethin'

G
But I hate changing

---------------
|BRIDGE.. 1:32|
---------------

D
Cause time fades

G
There's no space

Bm                 A
As life breaks new ground


---------------
|CHORUS.. 1:40|
---------------

D                    A
I'm just a believer, that things will get better

D
Some can take it or leave it

G
But I don't wanna let it go

D                    A
I'm just a believer, that things will get better

D
Some can take it or leave it

G
But I don't wanna let it go

-----------------
|BRIDGE 2.. 1:59|
-----------------

D                         A
It doesn't matter what is out there

D                         A 
My head is spinnin' and I won't bail out

D                         A
It doesn't matter what is out there

---------------
|BRIDGE.. 2:12|
---------------

D
Cause time fades

G
There's no space

Bm                 A
As life breaks new ground

---------------
|CHORUS.. 2:20|
---------------

N.C
I'm just a believer, that things will get better

N.C
Some can take it or leave it

N.C
But I don't wanna let it go

D                    A
I'm just a believer, that things will get better

D
Some can take it or leave it

G
But I don't wanna let it go

D                    A
I'm just a believer, that things will get better

D
Some can take it or leave it

G
But I don't wanna let it go



-That's all folks hope you enjoyed.
-Here's the bands site: http://weareamericanauthors.com/
Tap to rate this tab
# A B C D E F G H I J K L M N O P Q R S T U V W X Y Z