Song name
# A B C D E F G H I J K L M N O P Q R S T U V W X Y Z

American Authors - Best Day Of My Life tab

I couldn't believe this wasn't tabbed so I decided to do it myself. This is my
first tab to this site and I did it by ear. Please comment suggestions.


E-----------------------------------------|
B---------3-----------3-------------------|
G---2--4-----4--2--4-------4--------------|
D-----------------------------------------|
A-----------------------------------------|
E-----------------------------------------|

E-----------------------------------------|
B---------3-------------------------------|
G---2--4-----4--2--4----------------------|
D---------------------2-------------------|
A-----------------------------------------|
E-----------------------------------------|

Bend that last note and start over!
Tap to rate this tab
# A B C D E F G H I J K L M N O P Q R S T U V W X Y Z