Guitaretab - guitar tabs
Song name
# A B C D E F G H I J K L M N O P Q R S T U V W X Y Z

American Eyes - Carry On For Keepsake tab

-----------------------------------------------------------------------
		    Carry On For Keepsake - American Eyes
-----------------------------------------------------------------------
Tabbed by: Meximan
Email: Madar89@aol.com

Tuning:Standard

| /  slide up
| \  slide down
| h  hammer-on
| p  pull-off
| ~  vibrato
| +  harmonic
| x  Mute note

This is a very simple tab written by a very awesome band. On the lead guitar, the
second chorus might be a little off because itís hard to hear it in the song but
other than that itís all right. But just in case you do find something wrong email
me at the address above.

RHYTHM GUITAR
Intro x2
e|----------------------------------------------------|
B|----------------------------------------------------| 
G|----------------------------------------------------|  
D|--5~-------------9~------------10~------------7~----|  
A|--5~-------------9~------------10~------------7~----| 
E|--3~-------------7~------------8~-------------5~----|

Verse (Clean) x3
e|--------------------------------------------------------------------|
B|--------------------------------------------------------------------|
G|---------------------99999-121212121212-----------------------------|
D|--55555-101010101010-99999-121212121212-1010101010101010------------|
A|--55555-101010101010-77777-101010101010-1010101010101010------------|
E|--33333-8-8-8-8-8-8---------------------8-8-8-8-8-8-8-8-------------|

e|--------------------------------------------------------------------|
B|--------------------------------------------------------------------|
G|--------------------------------------------------------------------|
D|--99999-1212121212121212--------------------------------------------|
A|--99999-1212121212121212--------------------------------------------|
E|--77777-1010101010101010--------------------------------------------|

Chorus x2
e|--------------------------------------------------------------------|
B|--------------------------------------------------------------------|
G|--------------------------------------------------------------------|
D|--5555555555555555-999999999999999-10101010101010101010101010101010-|
A|--5555555555555555-999999999999999-10101010101010101010101010101010-|
E|--3333333333333333-777777777777777-8-8-8-8-8-8-8-8-8-8-8-8-8-8-8-8--|

e|--------------------------------------------------------------------|
B|--------------------------------------------------------------------|
G|--------------------------------------------------------------------|
D|--7777777777777777--------------------------------------------------|
A|--7777777777777777--------------------------------------------------|
E|--5555555555555555--------------------------------------------------|



Verse (Clean) x3
e|--------------------------------------------------------------------|
B|--------------------------------------------------------------------|
G|---------------------99999-121212121212-----------------------------|
D|--55555-101010101010-99999-121212121212-1010101010101010------------|
A|--55555-101010101010-77777-101010101010-1010101010101010------------|
E|--33333-8-8-8-8-8-8---------------------8-8-8-8-8-8-8-8-------------|

e|--------------------------------------------------------------------|
B|--------------------------------------------------------------------|
G|--------------------------------------------------------------------|
D|--99999-1212121212121212--------------------------------------------|
A|--99999-1212121212121212--------------------------------------------|
E|--77777-1010101010101010--------------------------------------------|

Chorus x2
e|--------------------------------------------------------------------|
B|--------------------------------------------------------------------|
G|--------------------------------------------------------------------|
D|--5555555555555555-999999999999999-10101010101010101010101010101010-|
A|--5555555555555555-999999999999999-10101010101010101010101010101010-|
E|--3333333333333333-777777777777777-8-8-8-8-8-8-8-8-8-8-8-8-8-8-8-8--|

e|--------------------------------------------------------------------|
B|--------------------------------------------------------------------|
G|--------------------------------------------------------------------|
D|--7777777777777777--------------------------------------------------|
A|--7777777777777777--------------------------------------------------|
E|--5555555555555555--------------------------------------------------|

Bridge
e|--------------------------------------------------------------------|
B|--------------------------------------------------------------------|
G|--------------------------------------------------------------------|
D|--5x-5-5x-5x-5-5x-7x-7-7x-7x-7-7x-12121212121212121212121212121212--|
A|--5x-5-5x-5x-5-5x-7x-7-7x-7x-7-7x-12121212121212121212121212121212--|
E|--3x-3-3x-3x-3-3x-5x-5-5x-5x-5-5x-10101010101010101010101010101010--|

e|--------------------------------------------------------------------|
B|--------------------------------------------------------------------|
G|--------------------------------------------------------------------|
D|--10101010101010101010101010101010-7777777777777777-----------------|
A|--10101010101010101010101010101010-7777777777777777-----------------|
E|--8-8-8-8-8-8-8-8-8-8-8-8-8-8-8-8--5555555555555555-----------------|


e|--------------------------------------------------------------------|
B|--------------------------------------------------------------------|
G|--------------------------------------------------------------------|
D|--5x-5-5x-5x-5-5x---------------------------------------------------|
A|--5x-5-5x-5x-5-5x---------------------------------------------------| 
E|--3x-3-3x-3x-3-3x---------------------------------------------------|
Interlude x2
e|--------------------------------------------------------------------|
B|--------------------------------------------------------------------|
G|--------------------------------------------------------------------|
D|---5~------------9~------------10~------------7~--------------------|
A|---5~------------9~------------10~------------7~--------------------|
E|---3~------------7~------------8~-------------5~--------------------|
[ Tab from: http://www.guitaretab.com/a/american-eyes/67117.html ]
Chorus x2
e|--------------------------------------------------------------------|
B|--------------------------------------------------------------------|
G|--------------------------------------------------------------------|
D|--5555555555555555-999999999999999-10101010101010101010101010101010-|
A|--5555555555555555-999999999999999-10101010101010101010101010101010-|
E|--3333333333333333-777777777777777-8-8-8-8-8-8-8-8-8-8-8-8-8-8-8-8--|

e|--------------------------------------------------------------------|
B|--------------------------------------------------------------------|
G|--------------------------------------------------------------------|
D|--7777777777777777--------------------------------------------------|
A|--7777777777777777--------------------------------------------------|
E|--5555555555555555--------------------------------------------------|

Outro
e|--------------------------------------------------------------------|
B|--------------------------------------------------------------------|
G|--------------------------------------------------------------------|
D|--5x-5-5x-5x-5-5x-5x------------------------------------------------|
A|--5x-5-5x-5x-5-5x-5x------------------------------------------------|
E|--3x-3-3x-3x-3-3x-3x------------------------------------------------|

LEAD GUITAR

Verse (listen for when to play)                                                               
e|--------------------------------12--10----------10-10-10-10---------|
B|--12/13-10-12/13-10-12--12/13-10--10---10-10\8-8--8--8--8--8-8-8\7--|
G|--------------------------------------------------------------------|
D|--------------------------------------------------------------------|
A|--------------------------------------------------------------------|
E|--------------------------------------------------------------------|

e|--------------------------------------------------------------------|
B|-7-7-7-7-7-10-10-10-10-10-10-12-------------------------------------|
G|--------------------------------------------------------------------|
D|--------------------------------------------------------------------|
A|--------------------------------------------------------------------|
E|--------------------------------------------------------------------|

Chorus (Played on the second time of the chorus)
e|------3---------3---------------------------------------------------|
B|--2-3---3-2-3-2---3-2-3-3-3-3-3/10-10-10-10-10-10-10-12-12-12-12-12-|
G|--------------------------------------------------------------------|
D|--------------------------------------------------------------------|
A|--------------------------------------------------------------------|
E|--------------------------------------------------------------------|

e|--------------------------------------------------------------------|
B|--12-12-12-12-12-12-12-12-------------------------------------------|
G|--------------------------------------------------------------------|
D|--------------------------------------------------------------------|
A|--------------------------------------------------------------------|
E|--------------------------------------------------------------------|

Verse (listen for when to play)                                                               
e|--------------------------------12--10----------10-10-10-10---------|
B|--12/13-10-12/13-10-12--12/13-10--10---10-10\8-8--8--8--8--8-8-8\7--|
G|--------------------------------------------------------------------|
D|--------------------------------------------------------------------|
A|--------------------------------------------------------------------|
E|--------------------------------------------------------------------|

e|--------------------------------------------------------------------|
B|-7-7-7-7-7-10-10-10-10-10-10-12-------------------------------------|
G|--------------------------------------------------------------------|
D|--------------------------------------------------------------------|
A|--------------------------------------------------------------------|
E|--------------------------------------------------------------------|

Chorus 2
e|----------------------------------10-10-10-10-10-10-10-10-12-12-12--|
B|--11/12-8-11/12-8-11/12-8-11/12-8-----------------------------------|
G|--------------------------------------------------------------------|
D|--------------------------------------------------------------------|
A|--------------------------------------------------------------------|
E|--------------------------------------------------------------------|

e|--12-12-12-12-12--15-15-15-15-15-15-15-15-15-15-15-15-12-12-10-10---|
B|--------------------------------------------------------------------|
G|--------------------------------------------------------------------|
D|--------------------------------------------------------------------|
A|--------------------------------------------------------------------|
E|--------------------------------------------------------------------|

e|--------------------------------------------------------------------|
B|--12-12-10-10-8-8-12-12-10-10-8-8-7-7-3-3-5-5-7-7-3-3-3-3-3-3-3-3---|
G|--------------------------------------------------------------------|
D|--------------------------------------------------------------------|
A|--------------------------------------------------------------------|
E|--------------------------------------------------------------------|

e|--------------------------------------------------------------------|
B|--5-5-7-7-7-7-7-7-7-7-10-10-10-10-10-10-10-10-12-12-12-12-12-12-12--|
G|--------------------------------------------------------------------|
D|--------------------------------------------------------------------|
A|--------------------------------------------------------------------|
E|--------------------------------------------------------------------|



e|--------------------------------------------------------------------|
B|--12-12-12-12-12-12-12-12-12----------------------------------------|
G|--------------------------------------------------------------------|
D|--------------------------------------------------------------------|
A|--------------------------------------------------------------------|
E|--------------------------------------------------------------------|
=======================================================================