Song name
# A B C D E F G H I J K L M N O P Q R S T U V W X Y Z

American Football - The One With The Tambourine tab

-----------------------------------------------------------------------------
               THE ONE WITH THE TAMBOURINE - American Football
-----------------------------------------------------------------------------
Tabbed by: Mean Mr Mustard

Tuning: Standard
So this might not be entirely accurate because I'm trying to figure it out in 
standard tuning, but if you want to play it in their tuning you can always 
transpose it pretty easily.

Intro/Verse:
                                                  x4
e|--------------------|--|-----0-----0----0-----0---|-------|
B|-----------0--------|--|---0-----0----0-----0-----|-------|
G|---------4-----4----|x8|-9-----8----6-----4-------|-4-----|
D|---0h4h6---------6--|--|--------------------------|-------|
A|-------------7------|--|--------------------------|-------|
E|-0------------------|--|--------------------------|-------|
 |                    |  |                          |
e|--------------------|--|-------7---0-------7--0---|-------|
B|-----------0--------|--|---9-----------9----------|-------|
G|---------4-----4----|x8|-9---9-------9---9--------|-9-----|
D|---0h4h6---------6--|--|--------------------------|-------|
A|--------------7-----|--|--------------------------|-------|
E|-0------------------|--|--------------------------|-------|


Chorus:
e|--------4p2p0--7--------------------|--------4p2p0--7------------0-------|
B|-0-------------------0--------------|-0-------------------0--------4-----|
G|-2---------------4h6----------------|-2---------------4h6----------------|
D|-2---------------------6hbr---6-----|-2---------------------6hbr---------|
A|-0----------------------------------|-0----------------------------------|
E|------------------------------------|------------------------------------|
 |                                    |                                    |
e|------------------------------------|------------------------------------|
B|-0-------------0-------0------0-----|-0-------------0-------0------0-----|
G|-2-------------4-------6------1-----|-2-------------4-------6------1-----|
D|-2-------------4-------6------2-----|-2-------------4-------6------2-----|
A|-0-------------2-------4------2-----|-0-------------2-------4------2-----|
E|------------------------------0-----|------------------------------0-----|


e|---------4p2p0--7----------------------|----------------------------|
B|-0--------------------0----------------|-0------0------4-5-7-9-12---|
G|-2----------------4h6------------------|-4------2------4-6-8-9-13---|
D|-2----------------------6hbr-----------|-4------2-------------------|
A|-0-------------------------------------|-2------0-------------------|
E|---------------------------------------|----------------------------|
 |                                       |                            |
e|---------------------------------------|---------------0------------|
B|-0--------------0-------0------0-------|-0------0------0------------|
G|-2--------------4-------6------1-------|-4------2------9------------|
D|-2--------------4-------6------2-------|-4------2------9------------|
A|-0--------------2-------4------2-------|-2------0------7------------|
E|-------------------------------0-------|----------------------------|


Bridge: (underneath regular guitar 1 verse part)
                                  [repeat this part a ton]
e|-------------------------------|----7----------7---------|
B|-12-10-9----------0--0--0------|---------9----------9----|
G|-13-11-9----------6--8--9------|--9----9-----9----9------|
D|------------------------9------|-------------------------|
A|------------------------7------|-------------------------|
E|-------------------------------|-------------------------|

Then, repeat the Chorus, then the E-bow solo over the verse part:

e|-----------------|---------(16)----|------------|-----------------|
B|-12-------9------|-12--------------|------------|-----------------|
G|-----------------|----------13-----|------------|------------11---|
D|-----------------|-----------------|-11---------|--------13-----11|
A|-----------------|-----------------|------------|-----------------|
E|-----------------|-----------------|------------|-----------------|

e|--------------|-----------------|---------------|-------------|
B|--------------|-----------------|---------------|-------------|
G|--------------|-----------------|---------------|-------------|
D|-13---------6-|-6h7p6h7p6h7p6h7-|---------------|-------------|
A|--------------|-----------------|---------------|-------------|
E|--------------|-----------------|---------------|-------------|
 
e|(12)-------------|---------(16)----|------------|-----------------|
B|-12-------9------|-12--------------|------------|-----------------|
G|-----------------|----------13-----|------------|------------11---|
D|-----------------|-----------------|-11---------|--------13-----11|
A|-----------------|-----------------|------------|-----------------|
E|-----------------|-----------------|------------|-----------------|

e|------------------------------|-----------------|-------------|-----------|
B|------------------------------|-----------------|-------------|-----------|
G|------------------------------|-----------------|-------------|-----------|
D|-14h16p14-13h14p13-11h13p11--6|-6h7p6h7p6h7p6h7-|-------------|-----------|
A|------------------------------|-----------------|-------------|-----------|
E|------------------------------|-----------------|-------------|-----------|


Outro:
e|--------------------|--|-------------------------------|
B|-----------0--------|--|-0--------0--------0-----------|
G|---------4-----4----|x8|-4--------2--------1-----------|
D|---0h4h6---------6--|--|-6--------2--------2-----------|
A|-------------7------|--|-7--------0--------2-----------|
E|-0------------------|--|-------------------0-----------|
Tap to rate this tab
 
# A B C D E F G H I J K L M N O P Q R S T U V W X Y Z