Song name
# A B C D E F G H I J K L M N O P Q R S T U V W X Y Z

American Football - But The Regrets Are Killing Me tab

American Football
"But the Regrets are Killing Me"


E -------------0----------------------------0------------0-----|
B ---------------4----------0------0----0-4--4-0-----4--4--4---|
G#---1-0----0------3------0------0-----0--------0------0-----3-|
C#-3------0----------------------------------------0-----------|
A -------------------------------------------------------------|
E ----------------------2------4------5------------------------|

E ---0------0-----0-----0-----0h4p0----0-----------------------|
B -2--2S4-4--4--0--0--5---5-5-------0---0----------------------|
G#-------------0-----------------------------------------------|
C#-------------------------------------------------------------|
A -------------------------------------------------------------|
E -------------------------------------------------------------|

E --------0---------0-------0----------------------------------|
B ------4---0-----4--4-----4--0--------------------------------|
G#----3---------3--------3-------------------------------------|
C#--3---------0------------------------------------------------|
A ---------------------2---------------------------------------|
E -------------------------------------------------------------|

email: modernrocko@gmail.com
aim:   modernrocko
yahoo: modernmusty
msn:   modernrocko@hotmail.com
Tap to rate this tab
# A B C D E F G H I J K L M N O P Q R S T U V W X Y Z