Song name
# A B C D E F G H I J K L M N O P Q R S T U V W X Y Z

American Football - Five Silent Miles tab

[riff 1] this may not be the exact picking but it's the chord
e|--7-7-------7-------7------7-------7----7---7---7--7---7---7----7----|
B|------10--------10------10-----10-----10-----10-----10---10---10-----|
G|---------9----9-------9------9-------9----9-------9-----9----9-------|
D|---------------------------------------------------------------------|
A|---------------------------------------------------------------------|
E|---------------------------------------------------------------------|

[riff 2]
e|--4---------------------------|
B|--5--0---------5-2--------5---|
G|--4--2---1-2-4---2--1-2-4-----|
D|--0--2-----------2------------|
A|--0--0-----------0------------|
E|------------------------------|

[riff 3]
e|----9-------9-------9------9-------9----9---9---9--9---9---9----9----|
B|------10--------10------10-----10-----10-----10-----10---10---10-----|
G|---------9----9-------9------9-------9----9-------9-----9----9-------|
D|---------------------------------------------------------------------|
A|---------------------------------------------------------------------|
E|---------------------------------------------------------------------|

e|----12-------12-------12------12--12---12--12--12-12---12--12---12---|
B|------10--------10------10-----10-----10-----10-----10---10---10-----|
G|---------9----9-------9------9-------9----9-------9-----9----9-------|
D|----12-------12-------12------2--------12---12----12-------12--------|
A|---------------------------------------------------------------------|
E|---------------------------------------------------------------------|

[riff 4]
e|---------------------------------------------0--------------0-----4------|
B|------0h2----------0h2-------2-3-2-0-------0h2----------0h2---------5----|
G|----2------------2-------------------2----2------------2--------------4--|
D|--0------------0------------------------0------------0-------------------|
A|----------0--2---------0h2-4------------------0--2------------0h2--------|
E|-------------------------------------------------------------------------|

[riff 5]
e|----12-------12-------12------12--12---12--12--12-12---12--12---12---|
B|------10--------10------10-----10-----10-----10-----10---10-----10---|
G|---------9----9-------9------9-------9----9-------9-----9----9--9----|
D|----12-------12-------12------2--------12---12----12-------12--------|
A|---------------------------------------------------------------------|
E|---------------------------------------------------------------------|
Tap to rate this tab
# A B C D E F G H I J K L M N O P Q R S T U V W X Y Z