Song name
# A B C D E F G H I J K L M N O P Q R S T U V W X Y Z

American Head Charge - Reach And Touch tab

Author/Artist: American Head Charge
Title: Reach and Touch
Album: The War of Art
Transcribed by: me
Email: imnotinsane@hotmail.com

Tuning: Db,Ab,Db,Gb,Bb,Eb

h    hammer on
p    pull off
p.m. palm mute


intro:
------------------------------------------------------------------------------|
------------------------------------------------------------------------------|
------------------------------------------------------------------------------|
--5-0-6-0-3-0-6-5-6-----------------------------------------------------------|
--5-0-6-0-3-0-6-5-6-----------------------------------------------------------|
--5-0-6-0-3-0-6-5-6-----------------------------------------------------------|


verse: clean

-21-21-21-21-21-21-21---------------------------------------------------------|
------------------------------------------------------------------------------|
------------------------------------------------------------------------------|
------------------------------------------------------------------------------|
------------------------------------------------------------------------------|
------------------------------------------------------------------------------|

breaking myself.......
-------------|----------------------------------------------------------------|
-------------|----------------------------------------------------------------|
-------------|----------------------------------------------------------------|
-5-6-3-6h5p6-|--5-6-3---------------------------------------------------------|
-5-6-3-6h5p6-|--5-6-3---------------------------------------------------------|
-5-6-3-6h5p6-|--5-6-3---------------------------------------------------------|


------------------------------------------------------------------------------|
------------------------------------------------------------------------------|
---1---1---1---1---1---1---1--------------------------------------------------|
-1---1---1---1---1---1---1---1------------------------------------------------|
------------------------------------------------------------------------------|
------------------------------------------------------------------------------|
p.m. (heavily).................

----------------------|-------------------------------------------------------|
----------------------|-------------------------------------------------------|
----------------------|-------------------------------------------------------|
-5-3-6-3-5-3-5-3-6-5--|-5-6-3-------------------------------------------------|
-5-3-6-3-5-3-5-3-6-5--|-5-6-3-------------------------------------------------|
-5-3-6-3-5-3-5-3-6-5--|-5-6-3-------------------------------------------------|

outro:
----|-------------------------------------------------------------------------|
----|-------------------------------------------------------------------------|
----|-------------------------------------------------------------------------|
-2--|-2-2---------------------------------------------------------------------|
-2--|-2-2---------------------------------------------------------------------|
-2--|-2-2---------------------------------------------------------------------|
Tap to rate this tab
# A B C D E F G H I J K L M N O P Q R S T U V W X Y Z