Song name
# A B C D E F G H I J K L M N O P Q R S T U V W X Y Z

American Hi Fi - Bitter End tab

Help us improve GuitareTab! Take a short survey!
|----------------------------------|    repeat
|----------------------------------|
|----------------------------------|
|-7-7-7------------------12-12-12--|
|-5-5-5--7-7-9-10-10-10--10-10-10--|
|--------5-5-7-8--8--8-------------|

I HOPE YOU HAVE FUNN
christian göbel

|----------------------------------|
|----------------------------------|
|----------------------------------|
|-7-7-7------------------12-12-12--|
|-5-5-5--7-7-9-10-10-10--10-10-10--|
|--------5-5-7-8--8--8-------------|
Related for Bitter End tab