Song name
# A B C D E F G H I J K L M N O P Q R S T U V W X Y Z

American Hi Fi - This Is The Sound tab

Artist: American Hi-Fi
Song: This is the Sound
Album: the Art of Losing
Tuning: Drop D
Composer: Stacy Jones

Verse Chords
|-0--------0--------0--------0--------|
|-1--------1--------1--------0--------|
|-0--------2--------0--------1--------|
|-2--------2--------2--------2--------|
|-3--------0--------3--------2--------|
|----------------------------0--------|

Chorus Chords
|-3--------0--------0--------0--------|
|-3--------0--------1--------0--------|
|-0--------1--------2--------1--------|
|-0--------2--------2--------2--------|
|-2--------2--------0--------2--------|
|-3--------0-----------------0--------|

the rhythm basically plays this throughout, under the solo play the chorus again. i'll 
the lead later when i figure it all out.
Tap to rate this tab
# A B C D E F G H I J K L M N O P Q R S T U V W X Y Z