Guitaretab - guitar tabs
Song name
# A B C D E F G H I J K L M N O P Q R S T U V W X Y Z

American Hi Fi - Teenage Alien Nation tab

This is another drop D song by American Hi-fi from what I can tell, and I hope
it's all right.  You could probably play it in standard tuning with the open
power chords as just a mute, but see what you think when playing it.

Intro/verse
|------------------------------
|------------------------------
|-4-4--------------------------
|-4-4--4-4--7-7--2-2-x-2-2-2-x-
|-2-2--4-4--7-7--2-2-x-2-2-2-x-
|------4-4--7-7--2-2-x-2-2-2-x-

around 1/2 way through the verse it'll change to being palm muted
|------------------------------
|------------------------------
|-4-4--------------------------
|-4-4--4-4--7-7--2-2-x-2-2-2-x-
|-2-2--4-4--7-7--2-2-x-2-2-2-x-
|------4-4--7-7--2-2-x-2-2-2-x-
PM............................

Chorus
|------------------------------------
|------------------------------------
|-4-4---------4-4---------4-4--------
|-4-4--4-0-2--4-4--4-0-2--4-4--4-0-2-
|-2-2--4-0-2--2-2--4-0-2--2-2--4-0-2-
|------4-0-2-------4-0-2-------4-0-2-

(only play part below after chorus first time then repeat the part above)
|---------
|---------
|--/9-9-9-
|---x-x-x-
|--/7-7-7-
|---------

|--------------------------
|--------------------------
|--------------7-----------
|-9------------7-----------
|-7------------5-----------
|-9------------------------
 Teenage alien nation woah

|--12--12--12-12--12--12--12-12-
|--12--12--12-12--12--12--12-12-
|-^14-^14-^14-14-^14-^14-^14-14-
|-------------------------------
|-------------------------------
|------------------------------- repeat

verse
when palm muted part comes in in the verse, the second guitar plays
|------------------------
|-12--12-12-14--12-11-12-
|------------------------
|------------------------
|------------------------
|------------------------

chorus
[ Tab from: http://www.guitaretab.com/a/american-hi-fi/33278.html ]
solo
|---------------------------------------------------------------------------
|-12-12-12----------------------------12-12-12------------------------------
|-14-14-14-14-12-11-------------------14-14-14-14-12-11---------------------
|-------------------12-9-9-12-9-9-12---------------------12-12-12-14-14-12--
|---------------------------------------------------------------------------
|---------------------------------------------------------------------------

-------------------------------------------------------------------------------|
-12-12-12----------------------------12-12-12------------12-12-12--------------|
-14-14-14-14-12-11-------------------14-14-14--14-14-14--14-14-14--14-14-14----|
-------------------12-9-9-12-9-9-12------------12-12-12------------12-12-12-12-|
----------------------------------------------------------------------------12-|
-------------------------------------------------------------------------------|

chorus

well that should be most of the song, the solo may be a little off but most
of the actual song seem about right.

___________________________________________
Lyrics (www.azlyrics.com)

I want it all
No matter what thought you heard me say
No matter what you know you canít escape today
ÖÖÖ
So what if you donít like me 
I donít give a fuck if you donít like me
I can change my lock 
It seems that Iím rotten to the core

Forget about tomorrow
You and me weíre going down in sorrow
Youth of the nation going nowhere
Station to station
Teenage alien nation (woah)
Teenage alien nation (yeah)

Itís all wrong
I guess that some of us have come and gone
I guess we kinda shudda known it all along
Never going anywhere
Sometimes you gotta pick it up and roll the dice
Your looking back and you donít think twice
Bout feeling lonely everyday

Forget about tomorrow
You and me weíre going down in sorrow
Youth of the nation going nowhere
Station to station [x3]
Teenage alien nation [x4]
Related for Teenage Alien Nation tab