Song name
# A B C D E F G H I J K L M N O P Q R S T U V W X Y Z

American Hi Fi - Dont Wait For The Sun tab

American hi-fi
Don't wait for the sun

its not perfect but pretty good

Verse

----------------------------------3---3-------------------------|
----------------1---1-------------3---3----------5--5-----------|
--1--1----------0---0-------------4---4----------5--5-----------|
--2--2----------2---2-------------5---5----------5--5-----------|
--2--2----------3---3-------------5---5----------3--3-----------|
----------------------------------3---3-------------------------|
I don’t need to know why…
Now its all I’ve got…

-----------------------------------3---3---------------------------|
----------------1---1--------------3---3----------1--1-------------|
--1--1----------0---0--------------4---4----------0--0-------------|
--2--2----------2---2--------------5---5----------2--2-------------|
--2--2----------3---3--------------5---5----------3--3---------0~--|
-----------------------------------3---3-----------------------0~--|
I should learn to be still…
I think I’m falling apart…


Chorus

----------------------------3--3------------------------------------|
--------------1--1----------3--3---------------------------0---0----|
---0--0-------0--0----------4--4---------5---5-------------2---2----|
---2--2-------2--2----------5--5---------5---5-------------2---2----|
---2--2-------3--3----------5--5---------3---3-------------0---0----|
---0--0---------------------3--3------------------------------------|

Don’t wait for the sun…

tab by Matthew J.
Tap to rate this tab
 
# A B C D E F G H I J K L M N O P Q R S T U V W X Y Z