Song name
# A B C D E F G H I J K L M N O P Q R S T U V W X Y Z

American Hi Fi - Bigger Mood tab

Artist: American Hi-Fi
Song: A Bigger Mood solo
tabbed by: Rudy Cortez(nemesis335142)
(12/28/01)
	after seeing a couple tabs for this song without the solo part
I decided that I should post one up. This is the way I play it, it's
not perfectly accurate by it's real close. This solo has some wicked
bending of the strings. If you have any suggestions to my tab or to
give my thanks for tabbing it out e-mail me at: nemesis335142.tx@netzero.net
 )= bend away
 ~= vibrate slowly
 /= slide up
   beginning
E|-------------------------------|
B|-------------------------------|
G|---6-5-6----6-5-6-5-6-5-6)-----|
D|-5--------5----------------5~5-|
A|-------------------------------|
D|-------------------------------|

   middle
E|-------------------------------|
B|-------------------------------|
G|---6-5-6---6-9)/8----9)-8---6)-|
D|-5-------5--------7~------7----|
A|-------------------------------|
D|-------------------------------|
   ending
E|-------------------------------|
B|---8-7-8-7)----8-7-8-7-8-7-----|
G|-7-----------7-------------7~--|
D|-------------------------------|
A|-------------------------------|
D|-------------------------------|
Tap to rate this tab
# A B C D E F G H I J K L M N O P Q R S T U V W X Y Z