Song name
# A B C D E F G H I J K L M N O P Q R S T U V W X Y Z

American Hi-fi - Save Me tab

Could not find any correct tabs so I thought I would give it a shot for my first ever tab.

Listen to the song for strumming patten

Drop D tuning


Intro/Verse
d|--x-------------------------------------x-----------------------x-----------|
B|--x-------------------------------------x-----------------------x-----------|
G|--7-------------------------------------x-----------------------x-----------|
D|--7-------------------------------------2-----------------------5-----------|
A|--5-------------------------------------2-----------------------5-----------|
D|--0-------------------------------------2-----------------------5-----------|


Chorus
d|--x----------x-------x------------x----------x-------------x--------x---x--------|
B|--x----------x-------x------------x----------x-------------x--------x---x--------|
G|--7----------x-------7------------x----------7-------------7--------3---5--------|
D|--7----------5-------7------------5----------7-------------7--------3---5--------|
A|--5----------5-------5------------5----------5-------------5--------1---3--------|
D|--0----------5-------0------------5----------0-------------0--------0---0--------|

Bridge
d|--x----x----x----x----x---------------------------------------------------------|
B|--x----x----x----x----x---------------------------------------------------------|
G|--x----x----x----x----7---------------------------------------------------------|
D|--5----3----5----3----7---------------------------------------------------------|
A|--5----3----5----3----5---------------------------------------------------------|
D|--5----3----5----3----0---------------------------------------------------------|

Im not sure about the solo bit after the bridge sorry

Hope this was a good tab and helped :)

Thanks ;)
ShibyMan
Tap to rate this tab
# A B C D E F G H I J K L M N O P Q R S T U V W X Y Z